Guitar Chords » E »Enanitos Verdes » Lamento Boliviano (Tab)

Lamento Boliviano
Enanitos Verdes

Lyrics, Chords & Tabs for Guitar, Bass & Ukulele

  •     MIm
    Me quieren agitar me incitan a gritar
    SIm
    soy como una roca, palabras no me tocan
    LAm
    adentro hay un volcán que pronto va a estallar
    MIm                 SI7
    yo quiero estar tranquilo.
    
    
    MIm
    Es mi situación una desolación
    SIm
    soy como un lamento, lamento boliviano
           LAm
    que un día empezó y no va a terminar
    MIm           SI7
    ya nadie hace daño.
    
    
    
  • MIm
    Me quieren agitar, me incitan a gritar
    SIm                               SIm-LA#m
    soy como una roca, palabras no me tocan
    LAm
    adentro hay un volcán que pronto va a estallar
    MIm                SI7
    yo quiero estar tranquilo.
    MIm
    Es mi situación,una desolación
    SIm                              SIm-LA#m
    soy como un lamento, lamento boliviano
         LAm
    que un día empezó y no va a terminar
    MIm          SI7
    ya nadie hace daño.
    MIm     SIm
    uoh,yoh,yoh,yoh,oh,oh
    LAm      MIm-SI7
    eh,eh,eh,eh,yeh
    
  •         Em 
    A) Me quieren agitar
       me incitan a gritar
        Bm7
       soy como una roca 
       palabras no me tocan
         Am7
       adentro hay un volcan
       que pronto va a estallar
       Em                   B7
       yo quiero estar tranquilo
    
    
       Em
    A) Es mi situacion
       una desolacion
       Bm7
       soy como un lamento
       lamento boliviano
               Am7
    
  •   Em                              Bm
    
    E|------------------------------|------------------------------------|
    B|-------------7---8----7-------|-------7-----8----7-----------------|
    G|---------9----------------9---|----7-----------------9---7---------|
    D|---7/9----------------------9-|-9----------------------------------|
    A|------------------------------|------------------------------------|
    E|------------------------------|------------------------------------|
    
                                      Am
    
    E|------------------------------|--------12------------------------|
    B|------------------------------|-----12----15B--12----------------|
    G|-9b---------------------------|-14B----------------14B-12h14-----|
    D|-------7-h9p-7----------------|----------------------------------|
    A|------------------------------|----------------------------------|
    E|------------------------------|----------------------------------|
    
       G
    
    
  •                Em
    me quieren agitar me incitan a gritar
                   SIm
    soy como una roca palabras no me tocan
                   Am
    adentro hay un volcan que pronto va a estallar
          Em         SI7
    yo quiero estar tranquilo.
    
    
                   Em
    es mi situacion una desolacion
                   SIm
    soy como un lamento,lamento boliviano
                   Am
    que un dia empezo y no va a terminar
          Em         SI7
    y a nadie hace daño.
    
    
    
  •     Em                             Bm
    e|--------------------------------|---------------------------------|
    B|--------7-8~~---7---------------|----7h8v~------------------------|
    G|------9-----------9-------------|---7--------9p7-10s11~-----------|
    D|---7h9--------------9~~---------|--9---------------------7~~h9p7--|
    A|--------------------------------|---------------------------------|
    E|--------------------------------|---------------------------------|
    
       Am7                                    Em 
    |---------12------------------------|--------------------------------|
    |------------15b~r--15--------------|--------------------------------|
    |-14s15s14------------14p12 14brbr~-|-16p14p12h14v~~~--12s11h12~~p11-|
    |-----------------------------------|--------------------------------|
    |-----------------------------------|--------------------------------|
    |-*rapido*--------------------------|------------------------*lento*-|
    
      B7                        Em
    |----------------------||--------------------------------------------|
    |-------------17-19b~~~-19p17p15-19p17p15-19b~~-15br-----------------|
    |-----------(19)-------||---------------------------14h15p14p12-14br~|
    
  • Esta muy fácil solo acomodenla a la canción suena muy bien
    fig.1 Estrofa. Me quieren agitar!!!
    
    G|-------------|-----------|-----------|----------|-------------
    D|-------------|-----------|---7--9----|---9--8--7|---5--7-5----
    A|-7--7----5--7|-7----7-5--|-9---------|-9--------|-7-----------
    E|------7------|---7------7|----------7|----------|----------5--
    
    G|-----------|--------|-----------------|
    D|---5--7-5--|---9----|-----------------|Se repite.
    A|-7--------7|-7----7/|---7-5---5-------|
    E|-----------|--------|-7-----7---7-5-7-|
    
    fig.2 pre-coro. Wooooo!!! Wooo ooh!!!!
    
    G|----------|-----------------------------|---------------------|
    D|----------|-7/9--99999--9/7--777777--7/0|---------------------|
    A|-7--777777|-----------------------------|--7------------------|
    E|----------|-----------------------------|----------77777777---|
    
    fig.3 Coros. Y yo estoy aquí!!!!!!
    
    G|---------------|------------|----------|----------|------------
    D|------5-5------|---5-5------|---7--9---|---9--8--7|-
  • Esta version fue hecha por mi espero les guste va al tiempo de
    la cancion(:
    
    
    
    Me quieren agitar....
    G|------------------------------------------------------------
    D|------------------9-----------------------------------------
    A|---7-7----7-7-7-9---7-9-9--------7-5-7-----7-5-7-77-5-------
    E|------7-7----7------------7-6-5-5------5-5-----------7-77-9-
    
    
     Es mi situación....
    G|------------------------------------------------------------
    D|------------------9-----------------------------------------
    A|---7-7----7-7-7-9---7-9-9--------7-5-7-----7-5-7-77-5-------
    E|------7-7----7------------7-6-5-5------5-5-----------7-77-9-
    
    
    
     Woooo....
    G|--------------------------------------------------------
    D|--------------------------7h9-7------------------------
    A|---7--7777--5------------7-------10-7-7777--99999-------
    E|--------------7--77777-5--------------------------------
    
    
      Y yo  estoy aquí....
    G|------------------------------------------------------------
    D|------------------9------------
  • Cancion  : Lamento Boliviano
    Grupo    : Enanitos Verdes
    Hecho por: FoXiTo!... FrOnTi 21!!!
    ______________________________________________________________________
    
    C = Platillo
    H = Charles
    S = Tarola
    t = Ton chico
    T = Ton grande
    F = Napoleon
    B = Bombo
    ______________________________________________________________________
    
    Cuando en el charles va con X, significa que esta medio abierto.
    Cuando en el charles va con x, significa que esta cerrado.
    Cuando en el charles va con o, significa que abres y cierras.
    Cuando en la tarola  va con F, significa que golpeas con las dos manos.
    Cuando en la tarola  va con /, significa que es golpe con el anillo.
    ______________________________________________________________________
    
    Intro
                       (-------15x------)
    C |X---------------|----------------|
    H |--x-x-x-x-x-x-x-|x-x-x-x-x-x-x-x-|
    S |----/-------/---|----/-------/---|
    B |o-----o-o-------|o-----o-o-------|
      (1 + 2 + 3 + 4 + |1 + 2 + 3 + 4 + )
    
    Pre Coro
    
      
  • +
    ¡Colabora con nosotros!
    Envíanos tu versión de esta canción
  • Tutorial
    Como tocar LAMENTO BOLIVIANO - Enanitos Verdes - Guitarra Acustica COMPLETO (HD)
    Tutorial Acordes
    5:44
  • Tutorial
    HD
    Como tocar Lamento Boliviano en Guitarra Acustica (HD)
    Tutorial
    4:55
  • Tutorial
    Como tocar Lamento Boliviano - SOLO - Guitarra Electrica (HD)
    Tutorial COMPLETO
    4:37
  • Tutorial
    HD
    Como tocar Lamento Boliviano acordes guitarra tutorial Enanitos verdes SUPER FACIL!
    7:10
  • Tutorial
    Lamento Boliviano - Enanitos Verdes - Como tocar en guitarra acordes
    3:52

Lamento Boliviano Lyrics
A) Me quieren agitar
me incitan a gritar
soy como una roca
palabras no me tocan
adentro hay un volcan
que pronto va a estallar
yo quiero estar tranquilo
A) Es mi situacion
una desolacion
soy como un lamento
lamento boliviano
que un dia empezo
y no va a terminar
ya nadie hace dan~o
(para el coro las mismas notas)
B) Y hoy estoy aqui
borracho y loco
y mi corazon idiota
siempre brillara (siempre brillara)
Y yo te amare
te amare por siempre
nena no te peines en la cama
que los viajantes
se van a atrasar
(punteo)
B) Y hoy... [bis]




[Lamento Boliviano acordes][Lamento Boliviano cifra]
© LaCuerda.net · legal notice · privacy · es · en · pt · contact us
DINAMICO