Guitar Chords » E »Enanitos Verdes » la Muralla Verde (Tab)

la Muralla Verde
Enanitos Verdes

Lyrics, Chords & Tabs for Guitar, Bass & Ukulele

  • C#m F#  (4)
    
    Requinto
    X2
    e:------------------------I-----------------11---------------I
    B:-------------11---11----I------------11-----12-11---9------I
    G:-------9----------------I-------9---------------------11-9-I
    D:--9h11---11-------------I--9h11---11-----------------------I
    A:------------------------I----------------------------------I
    E:------------------------I----------------------------------I
    
    
      C#m7                   F#
    Estoy parado sobre la muralla que divide
     C#m7                   F#
    todo lo que fue y lo que sera
      C#m7                        F#
    estoy mirando como aquellas viejas ilusiones
      C#m7                       F#
    pasando la muralla se hacen realidad
    
  • Intro  C#m F#  (4)
    
      C#m7                   F#
    Estoy parado sobre la muralla que divide
     C#m7                   F#
    todo lo que fue y lo que sera
      C#m7                   F#
    estoy mirando como aquellas viejas ilusiones
      C#m7                   F#
    pasando la muralla se hacen realidad
    
    CORO
                 D#m       G#m
    Pero como el amor de ayer
                 D#m       G#m
    Pero como el amor de ayer
                 D#m G#m     G    F#
    volvio a desaperecer, desaparecer
    
    Intro
    
  •   Am                   G
    Estoy parado sobre la muralla que divide
     Am                   G
    todo lo que fue y lo que sera
      Am                         G
    estoy mirando como aquellas viejas ilusiones
      Am                         G
    pasando la muralla se hacen realidad
    
    
                 Em       Am
    Pero como el amor de ayer
                 Em       Am
    Pero como el amor de ayer
                 Em Am        G
    volvio a desaperecer, desaparecer
    
    
    ( Am - G )
    Estoy parado sobre la muralla que divide
    
  • B:-------4h5-4--4-------2---0---I-------4h5-4--4---------------------I
    G:-------4---4--4---2h3---------I-------4---4--4---------------------I
    D:------------------------------I-----------------------6/7/8--------I
    A:--4--4--------2---------------I--4--4--------2---------------------I
    E:------------------------------I------------------------------------I
    
    
    e:------------------------------I------------------------------------I
    B:-------4h5-4--4---------7-----I-------4h5-4--4---------------------I
    G:-------4---4--4-------6-------I-------4---4--4---------------------I
    D:--------------------5---------I------------------------------------I
    A:--4--4--------2---6-----------I--4--4--------2---------------------I
    E:------------------------------I------------------------------------I
    
    
    
    
    2 Guitarras:
    
    Guitarra 1: (Cuatro veces)
    
  • Les escribe Brandon, esta es mi primera colaboración que hago
    
    Este solo es el de la versión original de la muralla verde.
    
    Solo:
    
    E----------------------------------------------------------
    A----------------------------------------------------------
    D--------------------------------------16------------------
    G-16--18--20-------------------------------14--18----------
    B-------------18b—18b—18b—12h14—12h14--------------16b--14-
    e----------------------------------------------------------
    
    *----------------------------------------------------------
    *----------------------------------------------------------
    *---------14b--11--14-------------------14/2/16v**---------
    *----------------------11b--11------11-----------14h16h18--
    *-12--14------------------------14-------------------------
    *----------------------------------------------------------
    
    *----------------------------------------------------------
    *----------------------------------------------------------
    *--------------------
  • Esta rola está facil, solo hay que agarrar bien los tiempos
    
    Intro x2
      C#m          F#m          C#m          F#m
    G|------------|------------|------------|------------|
    D|--------6--5|4---4---2--1|------------|------------|
    A|4---4-------|------------|4---4-------|--------1--2|
    E|------------|------------|------4---3-|2---2-------|
    
      Estoy parado...
      C#m   F#m    C#m   F#m    C#m   F#m    C#m   F#m 
    G|------------|------------|------------|------------|
    D|------------|------------|------------|------------|
    A|4--44------2|4--44------2|4-44--------|4-44------4s|
    E|------2--22-|------2--22-|----4s2--2-2|----4s2-22--|
    
      Coro
      D#m   G#m    D#m   G#m    D#m   G#m    F#m
    G|------------|------------|---8--------|---6--------|
    D|------6--664|----8-6-6-43|----8-6-6-65|4-4--4-6-4--|
    A|6--66-------|6-69--------|6-6---------|------------|
    E|------------|------------|------------|------------|
    
      Repite el intro...
      C#m   F#m    C#m   F#m    C#m   F#m    C#m   F#m
    G|
  • Intro y estructura del bajo
    
    G|-------1--------------------------------|
    D|------2-4-------------------------------|
    A|--4--4-------4--2-2--4---4-2--2---1-2---|
    E|----------2--------------------2-2------|
    
    
    Coro
    
    G|-------------8--------------------------|
    D|------------8-6-6-666-------------------|
    A|--4H6--666------------------------------|
    E|----------------------------------------|
    
    G|-------------8--------------------------|
    D|------------8-6-6-666-------------------|
    A|--4H6--666------------------------------|
    E|----------------------------------------|
    
    G|-------------8--------------------------|
    D|------------8-6-6-666-------------------|
    A|--4H6--666------------------------------|
    E|----------------------------------------|
    
    G|-------------8--------------------------|
    D|------------8-6-6-666----4-4-44---------|
    A|--4H6--666------------------------------|
    E|----------------------------------------|
    
    
    Interludios y solos
    
    G|----------------------------------------|
    D|-----------
  • Bueno esta cancion es de lo mas facil pero de las mejores k hay
    clasicas aki les dejo el bajo es muy facil y creo k este esta
    perfectan y sin errores
    
    INTRO Creo k se hace 4 veces
    
    G|-----------|---------|-----------|---------|
    D|-----------|---------|-----7-6-5-|-5-------| desd el ultimo 5
    A|-5-5-------|---2-3-5-|-5/7-------|---7-6-5-| comienza de nuevo
    E|-----5-4-3-|-3-------|-----------|---------|
    
    VERSO
    
    G|-------------|
    D|-------------| -(X4)-
    A|-5-55--------|
    E|-------3-33--|
    
    CORO
    
    G|-------------|-------------|-------------|-------------|
    D|-------------|-------------|-------------|-------------|
    A|-7-77--------|-7-77--------|-7-77--------|-------------|
    E|-------5-55--|-------5-55--|-------5-55--|--3----------|
    
    INTRO (otra ves)pero esta ves solo 2 veces
    
    
    G|-----------|---------|-----------|---------|
    D|-----------|---------|-----7-6-5-|-5-------|
    A|-5-5-------|---2-3-5-|-5/7-------|---7-6-5-|
    E|-----5-4-3-|-3-------|-----------|---------|
    
    
    VERSO
    
    G|-------------|
    D|--------
  • Intro / 1er Verso
                       |_______14x______|
    C |X---------------|----------------|--------------X-|
    H |--x-x-x-x-x-x-x-|x-x-x-x-x-x-x-x-|x-x-x-x-x-x-x---|
    S |----o-------o---|----o-------o---|----o-------o---|
    B |o-----o-o-------|o-----o-o-------|o-----o-o-----o-|
       1 + 2 + 3 + 4 +  1 + 2 + 3 + 4 +  1 + 2 + 3 + 4 +  
    
    Coro
                       |________________2x_______________|_______2x_______|
    C |X---------------|----------------|----X-----------|----------------|
    H |--x-x-x-x-x-x-x-|x-x-x-x-x-x-x-x-|x-x---x-x-x-x-x-|x-x-x-x-x-x-x-x-|
    S |----o-------o---|----o-------o---|----o-------o---|----o-------o---|
    B |o-----o-o-------|o-----o-o-------|o-----o-o-------|o-----o-o-------|
       1 + 2 + 3 + 4 +  1 + 2 + 3 + 4 +  1 + 2 + 3 + 4 +  1 + 2 + 3 + 4 + 
    
    2do Verso
                       |_______14x______|
    C |X---------------|----------------|--------------X-|
    H |--x-x-x-x-x-x-x-|x-x-x-x-x-x-x-x-|x-x-x-x-x-x-x---|
    S |----o-------o---|----o-------o---|----o-------o---
  • +
    ¡Colabora con nosotros!
    Envíanos tu versión de esta canción
  • Tutorial
    HD
    Como tocar la muralla verde en guitarra (HD)
    Tutorial
    3:13
  • Tutorial
    La muralla verde - Enanitos verdes - Como tocar en guitarra
    4:12
  • Tutorial
    HD
    Como tocar La Muralla de los Enanitos Verdes en el bajo tutorial#27
    4:36
  • Tutorial
    HD
    La Muralla más Sólo Los Enanitos Verdes Como Tocar En Guitarra
    6:02
  • Tutorial
    HD
    Como Tocar La Muralla Verde - Enanitos Verdes [Tutorial Guitarra]
    7:32

la Muralla Verde Lyrics
Estoy parado sobre la muralla que divide
todo lo que fue y lo que sera
estoy mirando como aquellas viejas ilusiones
pasando la muralla se hacen realidad
Pero como el amor de ayer
Pero como el amor de ayer
volvio a desaperecer, desaparecer
( Am - G )
Estoy parado sobre la muralla que divide
todo lo que ame de lo que amare
estoy mirando como mis heridas se cerraron
y como se desangra un nuevo corazon
Pero como el amor de ayer........
( Am - G )
Estoy parado sobre la muralla que divide
todo lo que fue de lo que sera
estoy mirando como aquella vieja sicodelia
estoy fijandome como viene y va
Pero como el amor de ayer........




[la Muralla Verde acordes][la Muralla Verde cifra]
© LaCuerda.net · legal notice · privacy · es · en · pt · contact us
DINAMICO