Guitar Chords » E »Enanitos Verdes » Luz de día (Tab)

Luz de día
Enanitos Verdes

Lyrics, Chords & Tabs for Guitar, Bass & Ukulele

  • Intro:  Am   G   F   C   G
    
                      Am              G
    Destapa el champagne, apaga las luces
                 Dm         F
    dejemos las velas encendidas
         C          G
    y afuera las heridas
                   Am                G
    ya no pienses mas en nuestro pasado
                  Dm         F
    hagamos que choquen nuestras copas
           C            G
    por habernos encontrado
    
    y porque
        C            G               Am
    Puedo mirar el cielo, besar tus manos
                F               C
    sentir tu cuerpo, decir tu nombre
    
  •                LAm                SOL
    destapa el champagne y apaga las luces
                  REm           FA
    dejemos las velas encendidas
        DO           SOL
    y afuera las heridas
                   LAm               SOL
    ya no pienses mas en nuestro pasado
                 REm                FA
    hagamos que choquen nuestras copas
          DO            SOL
    por habernos encontrado
            DO               SOL
    por que puedo mirar al cielo,
              LAm
    besar tus manos,
               FA
    sentir tu cuerpo, 
              DO
    decir tu nombre
    
  • Intro:  A   G   F   C   G
    
                      A              G
    Destapa el champagne, apaga las luces
                 F
    dejemos las velas encendidas
         C          G
    y afuera las heridas
                   A                G
    ya no pienses mas en nuestro pasado
                  F
    hagamos que choquen nuestras copas
           C            G
    por habernos encontrado
    
    y porque
        C            G               A
    Puedo mirar el cielo, besar tus manos
                F               C
    sentir tu cuerpo, decir tu nombre
    
  • Notas usadas: LAm. SOL  FA  DO     Raskeo:
            1ra    0    3    1   0         Balada Rock
            2da    1    0    1   1          ||^^|^
            3ra    2    0    2   0          ||||||
            4ta    2    0    3   2          ||||||
            5ta    0    2    3   3          vv||v|
            6ta    *    3    1   3
    
    
    Guit. 1:     |Lam.(2 tiempos)|Sol(2 tiempos)|Fa(2 tiempos)|Do(1tpo)|Sol(1tpo)|
                 |               |              |             |        |         |
    Guit. 2: 1ra |---------------|--------------|-------------|1-1-----|00-------|
             2ra |-------------0-|--------------|1------------|-3-2----|--3------|
             3ra |2-------------2|0-----------02|-22--------02|----2---|(letra)--|
    
                       LAm. (2 tpos)
       Destapa el champagne
                 SOL (2 tpos)
       apaga las luces
                   FA (2 tpos)
    
  •   Am    G        F            C
    1-----------------------------------------
    2---------------------------6-5---5-5-----
    3----4---------4-5-----------7-5-----7~---
    4-7~--7-5~-5-7----7-7-5-7~------7---------
                    Am
    Destapa el champagne
               G
    apaga las luces
                 F
    dejemos las velas encendidas 
         C          G
    y afuera las heridas
    
                   Am
    Ya no pienses mas
                    1----3--------------
                    2-3h5--5-3----------
                  G 3---------4~--------
    en nuestro pasado
    
  •             Am
    Destapa el champagne
               G
    apaga las luces
                 F
    dejemos las velas encendidas
         C          G
    y afuera las heridas
    
                   Am
    Ya no pienses mas
                  G
    en nuestro pasado...(Riff1)
                  F
    hagamos que choquen
    
    nuestras copas
           C            G
    por habernos encontrado
    
    
  • G----------------------------------------------------------------------
    D-------------------------------0-----3--------------0/h2--0-----------      Intro y solo
    A----0-----3-----------5--2--------0-----3-----3--------------2--------
    E-------0-----5/s0--3--------3--------------3-----3--------------3-----
    
    
    
    G----------------------------------------------------------------------
    D----------------------------0-----0--3-----2/h3--2-----0/h2--0--------      1er. y 3er. verso
    A----0-----0--------5-----5-----0--------3-----------3-----------2-----
    E-------0-----0--3-----3--------------------------------------------3--
    
    
    
    G----------------------------------------------------------------------
    D----------------------------0-----0--3--2/s5--------------------------      2do. y 4to verso
    A----0-----0--------5-----5-----0--------------3-----3--2--------------
    E-------0-----0--3-----3--------------------------3--------3--3--------
    
    
    
    G------------------------------------------
  • Saludos a todos los bajistas!!! esta es mi primera contribucion
    a esta gran página.
    
    La cancion esta muy sencilla. Se toca con quintas y la única
    variacion es el intro y en el solo de guitarra.
    
    Escuchenla bien, denle su tiempo y verán. Ya nomás le meten sus adornos.
    
    
    
    INTRO Y SOLO
    
       Am                       G
    G-|-----------|--5-2-------|------------|--4-0-------|
    D-|-----------|------------|------------|------------|
    A-|-----------|------------|----5-------|------------|
    E-|--5-0------|------------|--3---------|------------|
    
       Dm           F           C            G
    G-|-----2-----|-----5------|------------|------------|
    D-|--0-----2--|--3-----3---|------------|------------|
    A-|-----------|------------|--3--3--3s7-|-------5----|
    E-|-----------|------------|------------|--3-------3-|
    
    
    VERSOS
    
       Am                       G
    G-|-----------|------------|------------|------------|
    D-|-----------|------------|------------|------------|
    A-|-----------|------------|----5-------|----5-
  • +
    ¡Colabora con nosotros!
    Envíanos tu versión de esta canción
  • Tutorial
    HD
    Como tocar Luz de Dia en Guitarra Acustica (HD)
    Tutorial Acordes
    4:02
  • Tutorial
    HD
    Como Tocar "Luz de Día" en Guitarra Acústica.
    5:16
  • Tutorial
    HD
    Luz de dia - Enanitos verdes - Como tocar en guitarra acordes
    4:00
  • Tutorial
    HD
    Explicado - Como tocar "Luz de día" de Enanitos Verdes en el bajo tutorial#355
    11:48
  • Tutorial
    HD
    Como tocar LUZ DE DIA en guitarra - Enanitos Verdes [Tutorial Somos Posers]
    7:48

Luz de día Lyrics
Destapa el champagne, apaga las luces
dejemos las velas encendidas
y afuera las heridas
ya no pienses mas en nuestro pasado
hagamos que choquen nuestras copas
por habernos encontrado
y porque
Puedo mirar el cielo, besar tus manos
sentir tu cuerpo, decir tu nombre
y las caricias seran la brisa
que aviva el fuego
de nuestro amor, de nuestro amor
puedo ser luz de noche, ser luz de día
frenar el mundo por un segundo
y las caricias seran la brisa
que aviva el fuego
de nuestro amor, de nuestro amor
El tiempo dejó su huella imborrable
y aunque nuestras vidas son distintas
esta noche todo vale
tu piel y mi piel, ves que se reconocen
es la memoria que hay en nuestros
corazones, y porque...
Puedo mirar el cielo, besar tus manos
sentir tu cuerpo, decir tu nombre
y las caricias seran la brisa
que aviva el fuego
de nuestro amor, de nuestro amor
puedo ser luz de noche, luz de día
frenar el mundo por un segundo
y que me digas cuanto querías
que esto pasara
una vez mas, y otra vez mas, y porque
Puedo mirar...
sin tu amor no sé vivir
porque sin tu amor
yo me voy a morir de pena...




[Luz de día acordes][Luz de día cifra]
© LaCuerda.net · legal notice · privacy · es · en · pt · contact us
DINAMICO