Guitar Chords » E »Enanitos Verdes » Tu carcel (Tab)

Tu carcel
Enanitos Verdes

Lyrics, Chords & Tabs for Guitar, Bass & Ukulele

  •    RE                                  LA
       Te vas amor si asi lo quieres que puedo yo hacer
                        SIm            SOL
       tu vanidad no te deja entender
                            LA
       que en la pobreza se sabe querer
    
    
       RE                                LA
       Quiero llorar y me destroza que pienses asi
                           SIm         SOL
       y mas que ahora me quede sin ti
                           LA
       me duele lo que tu vas a sufrir
    
       ---CORO---
    
       RE                                LA
       Pero recuerda nadie es perfecto y tu lo veras
                          SIm              SOL
    
  •   D------------------------------------------
      G--------------------------------------22--
      B-------3-333--3--32-222--2-3320-000330--02
      e-0h2-20-----22-00------00-----------------  x2
    
    
    
     D
     Te vas amor,
                            A
     si asi lo quieres que puedo yo hacer,
           F#m        Bm
     tu vanidad no te deja entender,
    G                     A      A7
     que en la pobreza se sabe querer.
     D
     Quiero llorar,
                         A
     y me destroza que pienses asi,
                F#m         Bm
    
  • E--------------------------------------------------
    B--------------------------------------------------
    G--9h11--11/9-7----7-7-9-9h11-11-7-9-9-7-6---------
    D--------------------------------------------------
    A--------------------------------------------------
    E--------------------------------------------------
    
    
    E-------------------------------------------------
    B-------------------------------------------------
    G--6-6-7-9-9-6-7--7-6-4---4-4-4-7-6-4-6/7/9-9-----
    D-------------------------------------------------
    A-------------------------------------------------
    E-------------------------------------------------
    
    
         D                             A
    E-------------------------------------------------
    B-------------------------------------------------
    G--9h11--11/9-7----7-7-9-9h11-11-7-9-9-7-6--------
    
  •     D                               A                       F#7
    e --0/2--2--0-----------0--2--2-----0---0-------------------0--0--
    B -------------3----3--3---------3---------3--2----2--2--3--------
    G ----------------------------------------------------------------
    D ----------------------------------------------------------------
    A ----------------------------------------------------------------
    E ----------------------------------------------------------------
           Bm            G          E           A
    e --------------------------------------------------
    B --2--3----3--2--0----0--0--0--0--2--3--2--3h5--5--
    G --------------------------------------------------
    D --------------------------------------------------
    A --------------------------------------------------
    E --------------------------------------------------
    
        D                               A                       F#7
    e --0/2--2--0-----------0--2--2-----0---0-------------------0--0--
    B -------------3----3--3---------3---------3--2----2--2--3--------
    G ----------------------------------------------------------------
    D ----------------------------------------------------------------
    
  • E--------------------------------------------------
    B--------------------------------------------------
    G--7s9--9/7-5----5-5-7-7s9-9-5-7-7-5-4-------------
    D--------------------------------------------------
    A--------------------------------------------------
    E--------------------------------------------------
    
    
    E-------------------------------------------------
    B-------------------------------------------------
    G--4-4-5-7-7-4-5--5-4-2---2-2-2-5-4-2-4/5/7-------
    D-------------------------------------------------
    A-------------------------------------------------
    E-------------------------------------------------
    
    
         D                             A
    E-------------------------------------------------
    B-------------------------------------------------
    G--7s9--9/7-5----5-5-7-7s9-9-5-7-7-5-4-------------
    
  • Ke dicen muchachos la verdad ke esta kncion
    esta rebuena y esta refacil hace lo mismo
    en toda la kncion y si no me kreen eskuchenla
    
    
    INTRO -----> Descansar el primer solo de la guitarra
                 o de lo contrario tocarlo asi en el bajo
    
    G-9h11--11/9-7----7-7-9-11-11-11-9-9/6-6----6-6-7-9-9-9--------
    D--------------------------------------------------------------
    A--------------------------------------------------------------
    E--------------------------------------------------------------
    
    ESTO ES TODA LA CANCION
    
    G----------------------------------------
    D----------------------------------------
    A--5--5-5---5--5-5-----------------------
    E-------------------5--5-5--5--5-5-------
    
    G----------------------------------------
    D----------------------------------------
    A--2--2-2--------------------------------
    E----------3--3-3---5--5-5--5--5-5-------
    
    EN EL PRECORO PUEDES HACERLE UNA PEKEÑA VARIACION ASI
    
    G----------------------------------------
    D-----------
  • Cancion  : Tu Carcel (Vivo)
    Grupo    : Enanitos Verdes
    Hecho por: FoXiTo!... FrOnTi 21!!!
    ______________________________________________________________________
    
    C = Platillo
    C2= Platillo
    CH= Chaina
    R = Martilleo(20)
    H = Charles
    S = Tarola
    t = Ton chico
    T = Ton grande
    F = Napoleon
    B = Bombo
    ______________________________________________________________________
    
    Cuando en el charles va con X, significa que esta medio abierto.
    Cuando en el charles va con x, significa que esta cerrado
    Cuando en el charles va con o, significa que abres y cierras
    El 'd' significa 2 golpes rapidos
    En el platillo de 20, no lo golpea en el centro.
    ______________________________________________________________________
    
    Intro
    
       (------x7------) (--Creciendo--)
    t |----------------|--------------o-|
    H |----x-------x---|----------------|
    S |----------------|--o-o-o-o-oooo--|
    f |----------------|----------------|
    B |----------------|--o-o-o-o-------|
      (1 + 2 + 3 + 4 + |1 + 2 + 3 + 
  • Para arm en Do gente la parte de la intro:
    
    (6)(6) 6 (5)
    
    (5)(5) 6 (6)(6) (6)
    
    6 6 (6) 5
    
    5 5 (5) 6 6  6
    
    (5)(5) 5 (4)
    
    (4)(4)(4)(4) 5(5)5(5) 6 6......
    
    
    - 0:   nota soplada
    - (0): nota aspirada
    
    Espero que guste gente! Arriba los Enanitos, pero Vamo LaVela pa!!
    Salu..!!
  • Este tema va para todos los enamorados de chicas
    chetas que entiendan que el amor es mas fuerte
    que cualquier otra cosa no importa las diferencias
    sociales económicas ni la edad en fin para el amor
    no hubo no hay y no habrá limites jamás. Me duele
    no tenerte pero se que te amo y que pronto serás mía
    cuando por fin tenga la valentía que no tuve, y cuando te 
    pueda decir lo que ciento se que me entenderás
    
    
    D
    E  F#  F# E   D D  D  E E F# F#
    Te vas amor si así lo quieres
          A
    D    E  E   D C# C#   C#  D E E
    que puedo yo hacer, tu vanidad
            Bm
    C#  D  D    C#  B
    no te deja entender
    G                      A
    B    B   B  D C#     B   C# D  E E
    que en la pobreza se sabe querer.
    
     D
    E  F#  F# E   D D  D  E E F# F#
    Quiero llorar y me destroza
         A
    D    E E D C# C# C# D E E
    que pienses así, y mas que
               Bm
    ahora me quede sin ti
    G                    A             A7
       B   B  B   D C#  B  C# D  E E
      me duele lo que tu vas a sufrir.
    
     D
  • +
    ¡Colabora con nosotros!
    Envíanos tu versión de esta canción
  • Tutorial
    HD
    como tocar tu carcel de enanitos verdes en guitarra acústica Marco Antonio Solis
    9:00
  • Tutorial
    HD
    Como tocar TU CARCEL "Enanitos Verdes" en Guitarra Acustica (HD)
    Tutorial Acordes
    8:14
  • Tutorial
    Como tocar "TU Carcel" - Enanitos Verdes
    9:35

Tu carcel Lyrics
Te vas amor si asi lo quieres que puedo yo hacer
tu vanidad no te deja entender
que en la pobreza se sabe querer
Quiero llorar y me destroza que pienses asi
y mas que ahora me quede sin ti
me duele lo que tu vas a sufrir
Pero recuerda nadie es perfecto y tu lo veras
mas de mil cosas mejores tendras
pero cariño sincero jamas
Vete olvidando de esto que hoy dejas y que cambiaras
por la aventura que tu ya veras
sera tu carcel y nunca saldras
REQUINTO: RE,LA, SIm, SOL, LA x 2veces
Quiero llorar y me destroza que pienses asi
y mas que ahora me quede sin ti
me duele lo que tu vas a sufrir
Pero recuerda nadie es perfecto y tu lo veras
mas de mil cosas mejores tendras
pero cariño sincero jamas
Vete olvidando de esto que hoy dejas y que cambiaras
por la aventura que tu ya veras
sera tu carcel y nunca saldras (SE REPITE)
REQUINTO FINAL:RE, LA, SIm, SOL,LA
Pues ahi esta la rola espero que les guste le mando saludos
ami amigo ENRIQUE y mis compas David, Erick y Julio.




[Tu carcel acordes][Tu carcel cifra]
© LaCuerda.net · legal notice · privacy · es · en · pt · contact us
DINAMICO