Guitar Chords » E »Enanitos Verdes » Amigos (Tab)

Amigos
Enanitos Verdes

Lyrics, Chords & Tabs for Guitar, Bass & Ukulele

  • C          G
    No importa el lugar,
       Am              Em
    el sol es siempre igual
         F            D/F#
    No importa si es recuerdo
       G           G7
    es algo que vendrá
    
    
         C            G
    No importa cuanto hay
       Am            Em
    en tus bolsillos hoy
          F            D/F#
    sin a nada hemos venido
          G        G7
    y nos iremos igual
    
    
    
  •      C          G
    No importa el lugar, 
       Am              Em
    el sol es siempre igual
         F             C                  
    No importa si es recuerdo
       G           G7
    es algo que vendrá
    
    
         C            G   G9
    No importa cuanto hay
       Am            Em
    en tus bolsillos hoy
          F            C  
    sin a nada hemos venido
          G       G7       
    y nos iremos igual
    
    
    
  • C               Em
    No importa el lugar, 
    Am                  Em
    el sol es siempre igual
    F                   
    No importa si es recuerdo
    G
    es algo que vendrá
    
    C                  Em
    No importa cuanto hay
    Am               Em
    en tus bolsillos hoy
    F                  
    sin nada hemos venido
    G                
    y nos iremos igual
    
              Am          Em     F
    Por que siempre estarán en mi
    
  •      C          G/B
    No importa el lugar,
       Am              Em7
    el sol es siempre igual
         F             F#dim
    No importa si es recuerdo
       Gsus4        G
    es algo que vendrá
    
    
         C          G/B
    No importa cuánto hay
       Am              Em7
    en tus bolsillos hoy
         F             F#dim
    sin a nada hemos venido
       Gsus4        G
    y nos iremos igual
    
    (Cuerda sola)
    
  •      C          G/B
    No importa el lugar,
       Am              Em7
    el sol es siempre igual
         F              Fdim
    No importa si es recuerdo
       Gsus4         G
    es algo que vendrá
    
         C            G/B
    No importa cuanto hay
       Am            Em7
    en tus bolsillos hoy
          F            Fdim
    sin a nada hemos venido
          Gsus4       G  /G#
    y nos iremos igual
    
           Am         C/G    D/F#
    Pero siempre estarán en mi
    
  • PARA TODAS MI AMIGAS DIVINAS
    Y PARA MIS AMIGO DEL ALMA
    y para la amiga que se convirtio en mi vida y mucho mas que una amiga
    
    un besote
    
    
    
    
    LA PIDIERON ASI PUES AQUI ESTA  TAL COMO SE CANTA
    
    
    No importa el lugar El sol es siempre igual  No importa si es recuerdo
    
    e-|----------------|------------------------|-------------------|
    B-|--1-1--3-1--0---|------------------------|-------------------|
    G-|-0--------------|--0-2-0-2-0-------------|----------0--------|
    D-|----------------|-----------2------------|-2--3-3-3---2--0---|
    A-|----------------|------------------------|-------------------|
    E-|----------------|------------------------|-------------------|
    
    
    O es algo que vendrá  No importa cuanto hay  En tus bolsillos hoy
    
    e-|-----------------|----------------------|--------------------|
    B-|-----------------|--1-1--3-1--0---------|--------------------|
    G-|----------0-0----|-0--------------------|--0-2-0-2-0---------|
    D-|-----0-0-0-------|----------------------|------------2b-------|
    A-|--
  •   PERO SIEMPRE ESTARÁN...
    
      1   2   3   4   |
    
    G|----------------|----------------|----------------|----------------|
    D|----------------|----------------|----------------|----------------|
    A|----------------|----------------|----------------|----------------|
    E|5-------3-----3-|2-------------2-|1-------------1-|3---------------|
    
    
      NO IMPORTA DONDE ESTAS...
    
    G|----------------|----------------|----------------|----------------|
    D|----------------|--------2-----2-|----------------|----------------|
    A|3-----3-2-------|0-----0---------|----------------|----------------|
    E|----------------|----------------|1-----1-2-----2-|3-----3-3-----3-|
    
    
    
    G|----------------|----------------|----------------|----------------|
    D|----------------|--------2-----2-|----------------|----------------|
    A|3-----3-2-----2-|0-----0---------|----------------|----------------|
    E|----------------|----------------|1-----1-2-----2-|3-----3-3---4---|
    
      PERO SIEMPRE ESTARÁN...
    
    G|----------------|----------------|
  • C          G
    No importa el lugar,
    Sol do do  re do si
    
       Am              Em
    El sol es siempre igual
    Sol la la la sol  sol mi
    
         F            D/F#
    No importa si es recuerdo
    Mi fa fa fa sol mi re do
    
       G           G7
    Es algo que vendrá
    Do re re re sol sol
    
         C            G
    No importa cuanto hay
    Sol do do   re do si
    
       Am            Em
    En tus bolsillos hoy
    Sol la la la sol sol mi
    
          F            D/F#
    Sin a nada hemos venido
    Mi fa fa fa sol mi re do
    
          G        G7
    Y nos iremos igual
    Do do re re re sol sol
    
          Am        G        D/F#
    Por que siempre estarán en mí
    Do   re mi re   do re sol re do
    
      F
    Esos buenos momentos que
    Do do do do do do la la
    
    
      G
    Pasamos sin saber
    Sol la  sol mi sol
    
    
         C             G
    No importa donde estas
    Sol do do   re do si
    
       Am          Em
    Si vienes o si vas
    Sol la la la sol mi
    
       F           D/F#
    La vida es un camino
    Mi fa fa fa sol mi re do
    
    
    
    
    
    G         G7
    Un camino para andar
    Do do re re re sol sol
    
           C             G
    Si ha
  • +
    ¡Colabora con nosotros!
    Envíanos tu versión de esta canción
  • Tutorial
    HD
    Canciones fáciles - Amigos - Enanitos verdes
    3:47

Amigos Lyrics
No importa el lugar,
el sol es siempre igual
No importa si es recuerdo
es algo que vendrá
No importa cuanto hay
en tus bolsillos hoy
sin nada hemos venido
y nos iremos igual
Por que siempre estarán en mi
esos buenos momentos que pasamos sin saber
No importa donde estas
Si vienes o si vas
La ida es un camino
Un camino para andar
Si hay algo que esconder
O hay algo que decir
Siempre será un amigo
El primero en saber
Por que siempre estarán en mi
Esos bueno momentos que pasamos sin saber
Que una amigo es una luz
Brillando en la oscuridad
Siempre serás mi amigo
No importa nada mas
Por que siempre estarán en mi
Esos bueno m momentos que pasamos sin saber
Que una amigo es una luz
Brillando en la oscuridad
Siempre serás mi amigo
No importa nada mas...




[Amigos acordes][Amigos cifra]
© LaCuerda.net · legal notice · privacy · es · en · pt · contact us
DINAMICO