Guitar Chords » E »Enanitos Verdes » Eterna Soledad (Tab)

Eterna Soledad
Enanitos Verdes

Lyrics, Chords & Tabs for Guitar, Bass & Ukulele

  • Intro: C F C F
      
                C                    F
    Eterna soledad, el tiempo danza en la madrugada,
                   C                       F
    Y no podés dormir si están todas las luces apagadas.
    
            Am        C           Dm7          G         Am    C
    Ya se fue el tren y esta calle nunca más será igual.
           Dm7             G          F          E        Am  
    Aprendiste a tener miedo pero hay que correr el riesgo 
              F        G       C       F C F   
    de levantarse y seguir cayendo.
    
                        C                    F         G
    No hay nada que perder cuando ya nada queda en el vaso.
                 C                        F         G
    Y no podés saber que fuerte es el poder de un abrazo.
    
            Am        C             Dm7          G       Am   C
    
  • Intro: C Csus4 C Csus4
    
              C
    Eterna soledad
                  Csus4
    el tiempo danza en la madrugada
                C
    y no puedes dormir 
                   Csus4
    si están todas las luces apagadas
    
          Am      C
    Ya se fue el tren
          Dm7         G          Am       C
    y esta calle nunca mas será igual
          Dm7          G
    aprendiste a tener miedo
         F           E       Am
    pero hay que correr el riesgo
          F         G     C    Csus4 C Csus4
    
  •         |     |   |   A       A   |   |    A   |  A
        e|--|-----|---|---|---|---|---|---|----|---|--|
        B|--|-----|---|---|---|---|---|---|----|---|--|
        G|--|-----|---|---|---|---|---|---|----|---|--|
        D|--|-----|---|---|---|---|---|---|----|---|--|
        A|--|-----|---|---|---|---|---|---|----|---|--|
        E|--|-----|---|---|---|---|---|---|----|---|--|
            V     V   V   |   |   V   V   |    V   |
    
    
    Ritmo No 2
    ( Para que se den cuenta, este ritmo viene en el primer verso en los acordes:
      Am, C y F, G
    
    Acorde: X                 Y
    
            |    |    |   A   |   |   |        A
        e|--|----|----|---|---|---|---|----|---|--|
        B|--|----|----|---|---|---|---|----|---|--|
        G|--|----|----|---|---|---|---|----|---|--|
    
  •     C   C+4  Am    G   Bm
    
    |---0----1----0----3----2---|
    |---1----1----1----3----3---|
    |---0----0----2----0----4---|
    |---2----2----2----0----4---|
    |---3----3----0----2----2---|
    |---3----3----0----3----2---|
    
    
    Intro: C  C+4  C   C+4
    
    
                C                    C+4
    Eterna soledad, el tiempo danza en la madrugada
    
                   C                    C+4
    Y no podes dormir, si estan todas las luces apagadas
    
    
    
  • INTRO:   C  F  C  F
    
    
               C
    Eterna soledad
                   F
    el tiempo danza en la madrugada
                C
    y no podes dormir
                        F
    si están todas las luces apagadas.
               Am    C
    Ya se fue el tren
         F           G           Am  C
    y esta calle nunca mas será igual
          F             G
    aprendiste a tener miedo
          F          E      Am
    pero hay que correr el riesgo
             F          G     C
    
  • B|-----------------------------------
    G|-/12-12-9-9-5-2/5-12-12-9-9-5-5/9--
    D|-----------------------------------
    
    e|--------------------------------------------
    B|-----13/15-15/17-13-------------------------
    G|-/12----------------12-12/14-12-12-9-5/7-5--
    D|--------------------------------------------
    
    e|----------------------------------------
    B|-----13/15-15/17-13---------------------
    G|-/12----------------12-12/14-12-12-9-5--
    D|----------------------------------------
                C               F
    Eterna soledad, el tiempo danza en la madrugada,
                   C                       F
    Y no podés dormir si están todas las luces apagadas.
            Am        C           Dm           G         Am C
    Ya se fué el tren y esta calle nunca más será igual.
           Dm              G          F          E        Am
    
  •   No hay nada que perder…
    G---------------------------------------------------
    D---------------3----5-----------------------3----5-
    A--3---5-3------------------3-------5-3-------------
    E---------------------------------------------------
    
     Ya se fue el tren…
    G---------------------------------------------------
    D---------------------------------------------------
    A-----2-3---3-5----5--------------------------------
    E-5------------------3--4---------------------------
    
    Hay que correr el riesgo…
    G---------------------------------------------------
    D---------------------------------------------------
    A------------------------------3-3-3---------------- x3
    E-1-1-1-1----4-4-4-4--5-5-5-5-----------------------
    
    G---------------------------------------------------
    D---------------------------------------------------
    A---------------------3-3-3-------------------------
    E-1-1-1-1----3-3-3-3--------------------------------
    
    
    Yo lo se…
    G----------------------------------------------------
    D---
  • Intro
      |_______15x______|________3x______|
    H |----------------|----x-----------|----x-------X---|
       1 + 2 + 3 + 4 +  1 + 2 + 3 + 4 +  1 + 2 + 3 + 4 + 
    
    1er Verso / Coro
      |_______8x_______|________________3x_______________|
    C |----------------|X-------X-------|X---------------|
    H |x-x-x-x-x-x-x-x-|--x-x-x---x-x-x-|--x-x-x-x-x-x-x-|
    S |----@-------@---|----@-------@---|----@-------@---|
    B |o-------o-------|o-------o-------|o-------o-o-----|
       1 + 2 + 3 + 4 +  1 + 2 + 3 + 4 +  1 + 2 + 3 + 4 + 
    
    2do Verso
      |_______5x_______|
    C |----------------|X---------------|X---------------|
    H |x-x-x-x-x-x-x-x-|--x-x-x-x-x-x-x-|--x-x-x---------|
    T1|----------------|----------------|--------------o-|
    S |----@-------@---|----@-------@---|----@--o---oo---|
    B |o-------o-o-----|o-------o-o-----|o-------o-------|
       1 + 2 + 3 + 4 +  1 + 2 + 3 + 4 +  1 + 2 + 3 + 4 + 
    
    Outro
      |_______4x_______|________________2x_______________|
    C |X---------------|X-------X-------|X---------------
  • +
    ¡Colabora con nosotros!
    Envíanos tu versión de esta canción
  • Tutorial
    HD
    Como tocar Eterna Soledad - ENANITOS VERDES - en Guitarra Acustica (HD)
    Tutorial
    7:15
  • Tutorial
    HD
    Explicado - Como tocar "Eterna soledad" de Enanitos Verdes en el bajo tutorial#285
    10:10
  • Tutorial
    HD
    Como tocar Eterna Soledad ENANITOS VERDES
    3:25

Eterna Soledad Lyrics
Eterna soledad, el tiempo danza en la madrugada
Y no podes dormir, si estan todas las luces apagadas
Ya se fue el tren, Y esta calle nunca mas sera igual
Aprendiste a tener miedo, pero hay que correr el riesgo
De levantarse y seguir cayendo
No hay nada que perder, cuando ya nada queda en el vaso
Y no podes saber, que fuerte es el poder de un abrazo
Ya se fue el tren, Y esta calle nunca mas sera igual
Aprendiste a tener miedo, pero hay que correr el riesgo
De levantarse y seguir cayendo
Pero hay que correr el riesgo, de levantarse y seguir callendo
Yo lo se, que nadie te dijo
para que todos estan aqui
Yo se la soledad, te da un cierto confort, no te deja mirar
Eterna soledad, Eterna soledad
Se que la gente busca tu consejo
Hay que correr el riesgo, de levantarse y seguir cayendo
Pero hay que correr el riesgo
de levantarse y seguir cayendo




[Eterna Soledad acordes][Eterna Soledad cifra]
© LaCuerda.net · legal notice · privacy · es · en · pt · contact us
DINAMICO