Guitar Chords » S »Soda Stereo » un Millon de Años Luz (Tab)

un Millon de Años Luz
Soda Stereo

Lyrics, Chords & Tabs for Guitar, Bass & Ukulele

  • INTRO [ B  A  E/G#  E ] (4)
    
        B     A E/G# E     B       A     E/G#  E
    No vuelvas........ no vuelvas sin razón
        B     A E/G# E         B          A     E/G#  E   B
    no vuelvas........ yo estaré a un millón de años luz
    
    
                 D         E  D  B
    Y cuando el mundo oscurece
              D       E   G-A   B
    y las promesas engañan
              D    E         D
    nos revolcamos en el jardín
               B     D  E   B
    por donde nadie pasa
    
    
               D         E   D   B
    Del fuego vino el diluvio
    
  • E/---------------------------------------------------/
    
    e/--17-17-14/14-17-17-14/14-17-17-14/14/14/12-/
    b/--------------------------------------------/
    g/--------------------------------------------/
    d/--------------------------------------------/
    a/--------------------------------------------/
    E/--------------------------------------------/
    
    e/-11/12/14-12-11-11s9-9s7-7--12-11p9-----12-11h9---/
    b/----------------------------------10--10-------10-/
    g/--------------------------------------------------/
    d/--------------------------------------------------/
    a/--------------------------------------------------/
    E/--------------------------------------------------/
    
    e/-9------11-11-----9-9----9--------9--------9----/
    b/---12-12-----10-10---1010-12~-1010-12~-1010-12~-/
    g/------------------------------------------------/
    d/------------------------------------------------/
    
  • E/-------------------------------------/
    
    e/-14-17-14-16p-14-17-14-16p-14-17-14-16p-/
    b/----------------------------------------/
    g/----------------------------------------/
    d/----------------------------------------/
    a/----------------------------------------/
    E/----------------------------------------/
    
    e/-14-12-11-11-12-14-12-11-11s9-9-9s7-7-/
    b/--------------------------------------/
    g/--------------------------------------/
    d/--------------------------------------/
    a/--------------------------------------/
    E/--------------------------------------/
    
    e/-9-12-11-9----9-12-9-11-9----9-9s7-7-11-7-7s5-5-9-/
    b/----------10~------------10~----------------------/
    g/--------------------------------------------------/
    d/--------------------------------------------------/
    
  • INTRO [ B  A  E/G#  E ] (4)
    
    
    E|-12h14-14-14-16h12-12-12-14-12-14-17-15b-14-17-15b-14-17-
    B|12---------------16-----16-------------------------------
    G|---------------------------------------------------------
    D|---------------------------------------------------------
    A|---------------------------------------------------------
    E|---------------------------------------------------------
    
    E|14-17-15b-14-14-12-12-14-12----------------------12-----
    B|------------------16-----(16-16-16s14-14-14s12)14-16-14--
    G|------------------------------------------------------14b
    D|---------------------------------------------------------
    A|---------------------------------------------------------
    E|---------------------------------------------------------
    
    E|--12---------------------|-------------------------------
    B|14-16-14----14-12-16---14|---14--12b-14--12b--14-12b-----
    G|--------14b----------14--|-14--14---14-14---14-14--------
    
  •      |----10x--------|----------------2x---------------|------3x-------|
                       
    C   |----------------|o---------------|----------------|---------------|
    H   |----------------|--x-x-x-x-x-x-x-|x-x-x-x-x-x-x-o-|x-x-x-x-x-x-x-x|
    t   |----------------|----------------|----------------|---------------|
    S   |----------------|----o-------o---|----o-------o---|----o-------o--|
    F   |----------------|----------------|----------------|---------------|
    B   |----------------|o-------o-o-----|o-------o-o-----|o-------o-o----|
    
    
    
    
    
                                          |-----------------------2x-------
    C   |----------------|o---------------|----------------|---------------|
    H   |x-x-x-x-x-x-x-o-|--x-x-x-x-x-x-x-|x-x-x-x-x-x-x-x-|x-x-x-x-x-x-x-x|
    t   |----------------|----------------|----------------|---------------|
    S   |----o-------o---|----o-------o---|----o-------o---|----o-------o--|
    F   |----------------|----------------|----------------|---------------|
    B   |o--
  • +
    ¡Colabora con nosotros!
    Envíanos tu versión de esta canción
  • Tutorial
    HD
    Como tocar "un millon de años luz" de Soda Stereo en guitarra
    7:17
  • Tutorial
    Como tocar intro de Un millon de años luz .wmv
    2:03

un Millon de Años Luz Lyrics
No vuelvas........ no vuelvas sin razón
no vuelvas........ yo estaré a un millón de años luz
Y cuando el mundo oscurece
y las promesas engañan
nos revolcamos en el jardín
por donde nadie pasa
Del fuego vino el diluvio
la nave vuelve a partir
y mi alimento son las cenizas
de una noche larga
No vuelvas........ no vuelvas sin razón
no vuelvas........ yo estaré a un millón de años luz de casa
De las historias pasadas
ya no me aturde el saber
que ella conoce mi perversión
en una noche larga
y esta noche es larga
No vuelvas sin razón
no vuelvas........ yo estaré a un millón de años luz de casa
no vuelvas........ yo estaré a un millón de años luz de casa




[un Millon de Años Luz acordes][un Millon de Años Luz cifra]
© LaCuerda.net · legal notice · privacy · es · en · pt · contact us
DINAMICO