Guitar Chords » S »Soda Stereo » De Música Ligera (Tab)

De Música Ligera
Soda Stereo

Lyrics, Chords & Tabs for Guitar, Bass & Ukulele

  • Bm-G-D-A
    Bm-G-D-A(4)
    
    Bm          G D       A         Bm    G D  A
    Ella durmio,    al calor de las masas
    Bm           G  D     A          Bm  G D  A
    Y yo desperté,    queriendo soñarla
    Bm                 G D   A          Bm     G D  A
    Algún tiempo atras,    pensé en escribirle
    Bm             G D        A          Bm  G D   A
    Y nunca sortié,    las trampas del amor
    
    CORO:
    
    Bm         G-D-A               Bm  G-D-A
    De aquel amor,    de música ligera
    Bm         G-D-A               Bm  G-D-A
    Nada nos libra,   nada más queda
    
    
    
  • Bm-G-D-A (x2)
    
    Bm      G      D         A         (Bm-G-D-A)
    Ella durmio, al calor de las brasas
    Bm      G      D         A         (Bm-G-D-A)
    Y yo desperté, queriendo soñarla
    Bm      G      D         A         (Bm-G-D-A)
    Algún tiempo atras, pensé en escribirle
    Bm      G      D         A         (Bm-G-D-A)
    Y nunca sortié, las trampas del amor
    
    CORO:
    
    Bm-G-D-A       Bm-G-D-A
    De aquel amor, de música ligera
    Bm-G-D-A       Bm-G-D-A
    Nada nos libra, nada más queda
    
    
    Bm       G       D         A   (Bm-G-D-A)
    
  • Aca les dejo los punteos de "De Musica Ligera"  estan igualitos
    
    
    Solo 1:
    e-----------------------------------------------
    B-----------------------------------------------
    G-----------------------------------------------
    D---------0------0------------------------------
    A-2--2--4------4---4-2-0---2--0-----------------
    E------------------------2-------2-0-2-0--------
    
    e-----------------------------------------------||
    B-----------------------------------------------||
    G---------------------------------2-------------||
    D---------0--2--4--2--0-------------0--2/4--4/7-||
    A-2--2--4---------------4--2----0---------------||
    E-----------------------------------------------||
    
    Solo 2:
    
    e--7--5--7--5--7--5/2--2-0-2-(5.2.0)-2--5/7-7-
    B----------------------------------------------
    G----------------------------------------------
    D----------------------------------------------
    A----------------------------------------------
    E----------------------------------------------
    
    e-----12-10-9-10-12-10-9-7-
  • B5-G-D-A x6
    
    
    Ella durmió,al calor de las masas
    Y yo desperté,queriendo soñarla
    
    (Técnica de palm mute)
    
                       G D                    G D
    Algún tiempo atrás,    pensé en escribirle
                   G D                     G D   A
    Y nunca sortié,    las trampas del amor
    
    VAMOS!
    
    B5         G-D-A             B5  G-D-A
    De aquel amor,  de música ligera
    B5         G-D-A             B5  G-D-A
    Nada nos libra,   nada más queda
    
    
  • Key=Bm
    
    
         Bm   Bm                  D    D   D A  A  A  A
         Q    E.  S E  E  Q       Q    E.  S E  E  E  E
    E||--2----2-----------3----|--2----2---2-0--0--0--0--|
    B||--3----3-----------0----|--3----3---3-2--2--2--2--|
    G||--4----4-----------0----|--2----2---2-2--2--2--2--|
    D||--4----4-----------0----|--0----0---0-2--2--2--2--|
    A||--2----2----------------|-------------0--0--0--0--|
    E||-----------3-3--3-------|-------------------------|
    
    
                             Entra bajo y batería 0:05
      Bm   Bm                  D    D   D A  A  A  A
      Q    E.  S E  E  Q       Q    E.  S E  E  E  E
    --2----2-----------3----|--2----2---2-0--0--0--0--|
    --3----3-----------0----|--3----3---3-2--2--2--2--|
    --4----4-----------0----|--2----2---2-2--2--2--2--|
    --4----4-----------0----|--0----0---0-2--2--2--2--|
    
  •        Bm           G         D          A
    1|------------|----------|----------|----------|
    2|------------|----------|----------|----------|
    3|-------4----|----------|------7---|----------|
    4|-------4----|------5---|------7---|------7---|
    5|---2--------|------5---|---5------|------7---|
    6|------------|---3------|----------|---5------|
    
     *****X6 veces antes de comensa a cantar******
    
    Bm          G D       A         Bm    G D  A
    Ella durmio,    al calor de las masas
    Bm           G  D     A          Bm  G D  A
    Y yo desperté,    queriendo soñarla
    Bm                 G D   A          Bm     G D  A
    Algún tiempo atras,    pensé en escribirle
    Bm             G D        A          Bm  G D   A
    Y nunca sortié,    las trampas del amor
    
    CORO:
    
  • pz ahi les va la version chida con todo y arreglos q suenan de lujo
    espero les guste
    
    intro(0:05)
    G-14h16--14------------------
    D------------12-----11-12h11-
    A----------------12---------
    E----------------------------
    
    (X3)
    G-------------------------------------
    D-------------------------------------
    A--2--2---------------5--5------------
    E--------3-3-3-3-----------5-5-5-5-5--
    
    G-------------------------------------
    D----------------5----4-----2---------
    A--2--2------------------5----4--2--0-
    E-------3-3-3-------------------------
    
    verso(0:23)
    G------------------------------------
    D------------------------------------
    A--2---2--------------5---5----------
    E--------3-3-3-3------------5-5-5-5--
                                           (X3)
    G------------------------------------
    D--------------------0-----0h2-------
    A--2---2----------------4-----4--2--0
    E--------3-3-3-3---------------------
    
    G-------------------------------------
    D-------------------------------------
    A--2--2---------------5-
  • Chequenla y ahi dejo que ustedes decidan para mi esta correcta
    esta rola se la dedico a mi novia Jessica.
    
    Ahi les va la clave
    T:tom de aire o=golpe normal
    F:tom de piso o=golpe normal
    S:tarora (snare)o=golpe normal,
                    f=golpe con las dos manos
                    g=nota fantasma
    B:bombo o=golpe normal
    
    C:crash X=golpe fuerte
    H:hi-hats x=cerrados,
              o=golpe y los abres
    
    Nota ya no lo puse pero en los coros y durante el solo
    los hi-hats se golpean medio abiertos.
    
    INTRO                                   C  r  e  s  e  n d o
    T|----------------|----------------|----o-o-o-o-o-o-|o-o-o-o------oo-|
    F|----------------|----------------|----o-o-o-o-o-o-|o-o-o-o---------|
    S|----------------|----------------|----------------|--------o-ooo---|
    B|----------------|----------------|----------------|----------------|
     |1 + 2 + 3 + 4 + |1 + 2 + 3 + 4 + |1 + 2 + 3 + 4 + |1 + 2 + 3 + 4 + |
    
    C|X-----------X---|X---------------|----------------|----------------|
    H|--x-x-x-x-x---x-|--x-x-x
  • Las notas con - son aspiradas y las demás sopladas. Escuchen el
    tema para seguir el ritmo.
    
    
    
    -6 -6 -7  7  -7  7 -7  -6  6  5  -6
    Ella durmio,  al calor de las masas
    5  -6 -6 6 -6   5  6  6   5  6 5
    Y yo desperté,  queriendo soñarla
    5  -6 -6  -7   7     7  -8   7   -6 5 -6
    Algún tiempo atras,  pensé en escribirle
    5  -6 -6 6 -6     5  6  6     5  6 5
    Y nunca sortié,  las trampas del amor
    
    
    8     8  -8 8  -8 -8 -8 -8  8 7 -7 -6
    De aquel amor,  de música ligera
    8  8  9   8 8   -8 -8  8  7 -7 -6
    Nada nos libra,  nada más queda
    
    
    -6 -6   -7  7   7  -8 7 -6  5 -6
    No le enviaré,  cenizas de rosas
    5  -6 -6  6  -6    5  6  6  5  6 5
    Ni pienso evitar,  un roce secreto
    
    
    
    8     8  -8 8  -8 -8 -8 -8  8 7 -7 -6
    De aquel amor,  de música ligera
    8  8  9   8 8   -8 -8  8  7 -7 -6
    Nada nos libra,  nada más queda
    
    
    
    (Solo)
    
    
    8     8  -8 8  -8 -8 -8 -8  8 7 -7 -6
    De aquel amor,  de música ligera
    8  8  9   8 8   -8 -8  8  7 -7 -6
    Nada nos libra,  nada más queda
  • +
    ¡Colabora con nosotros!
    Envíanos tu versión de esta canción
  • Tutorial
    HD
    Como tocar De música ligera - Soda Stereo - (Versión en vivo)
    10:18
  • Tutorial
    de musica ligera tutorial guitarra completo con acordes y ritmo de soda stereo
    5:40
  • Tutorial
    Como tocar DE MUSICA LIGERA en GUITARRA; SODA STEREO en KARMA GUITAR
    7:53
  • Tutorial
    HD
    Como tocar " De musica ligera" de Soda Stereo SOLO #2
    14:30
  • Tutorial
    HD
    Aprender como tocar De Musica Ligera (Soda Stereo)
    en guitarra acordes notas la cuerda curso TCDG
    6:40

De Música Ligera Lyrics
Ella durmio, al calor de las brasas
Y yo desperté, queriendo soñarla
Algún tiempo atras, pensé en escribirle
Y nunca sortié, las trampas del amor
De aquel amor, de música ligera
Nada nos libra, nada más queda
No le enviaré, cenizas de rosas
Ni pienso evitar, sus roces secretos
De aquel amor, de música ligera
Nada nos libra, nada más queda, nada más queda, nada más...
De aquel amor, de música ligera
Nada nos libra, nada más queda, nada más queda,
nada más queda, nada más queda, nada más queda,
(varias veces mismos acordes)
Bueno pues aquí tienen la rola completita,
si tienen el solo no duden en enviarmelo




[De Música Ligera acordes][De Música Ligera cifra]
© LaCuerda.net · legal notice · privacy · es · en · pt · contact us
DINAMICO