Guitar Chords » S »Soda Stereo » Cuando pase el temblor (Tab)

Cuando pase el temblor
Soda Stereo

Lyrics, Chords & Tabs for Guitar, Bass & Ukulele

  • Intro: [Am G F Em]x2
    
    
    Am  G                    F
    Yo, caminaré entre las piedras
    Em                      C
    hasta sentir el temblor
    F          C       Gm
     en mis piernas.
               C              Gm
    A veces tengo temor (lo sé)
                   D
    a veces vergüenza.
    F  B7
    Oh oh
    
    
    Am     G                       F
    Estoy, sentado en un cráter desierto
    Em                        C
    
  • Am  G                    F
    Yo, caminaré entre las piedras
    Em                      C
    hasta sentir el temblor
    F          C
     en mis piernas.
    A#           C          A#
    A veces tengo temor (lo sé)
                 D
    a veces vergüenza.
    F  B7
    Oh oh
    
    Am     G                       F
    Estoy, sentado en un cráter desierto
    Em                        C
    sigo aguardando el temblor
    F         C
     en mi cuerpo.
    A#          C           A#
    
  • Am:   XXX555    Gm:   XXX333     B7/b9:   XXX878
    G9:   XXX435    C7:   XXX353     Am7/9:   X05557
    F:    XXX565    D7:   XXX575     D6/A:    X07777
    Em:   XXX987    B7/4: XX4455     Fmaj7/#4:133200
    C:    XXX988    Em7/4:XXX91010   Gm*:     XXX786
    C4:   XXX1088   B7:   XX4445
    
    Am
    Yo
    G9                 F
    caminare entre las piedras
    Em                  C      C4
    hasta sentir el temblor
            C         Gm
    en mis piernas
               C7             Gm
    a veces tengo temor (lo se)
                D7     F   B7/4
    a veces verguenza oooooooooh
    
    
  •    Em5     G3     F    Am7     Em8
    
    e---5-----3-----1-----7-----8--|
    B---5-----3-----1-----8-----8--|
    G---5-----4-----2-----9-----9--|
    D---7-----5-----3-----9----10--|
    A---7-----5-----3-----7----10--|
    E---5-----3-----1-----X-----8--|
    
       F5    Em3    C5    A     B
    
    e---8-----3-----3-----5-----3--|
    B---8-----3-----3-----5-----3--|
    G--10-----3-----5-----6-----3--|
    D--10-----5-----5-----7-----3--|
    A---8-----5-----3-----8-----5--|
    E---------3-----------5-----3--|
    
    
        C    D      F     H   Dm    E
    
  • Tempo = 90
    
    Bajo AFINACION: (EADG)
    
    
    Solo hay que escucharla y seguirla, le puse la letra masomenos como guia
    por si no se entienden los tiempos, espero que la disfruten..
    saludos desde Salta Argentina
    
    INTRO
    |----------------------------------------------------|
    |--------------------------------9--12----9----------|
    |--------------------------------------------12------|
    |----------------------------------------------------|
    
    
    |----------------------------------------------------|
    |----------------------------------------------------|
    |--0-----------0-----------0--0--------0-------------|
    |----------------------------------------------------|
    
    
    ----------------------------------------------------|
    ----------------------------------------------------|
    ----------------------------------------------------|
    --3-----------3-----------3--3--------3-------------|
    
    
    ----------------------------------------------------|
    ----------------------------------------------------|
    ---------------------
  • Esta rola me late, ya que el bajo forma una parte
    fundamental, ya te daras cuenta por que...hay que 
    agarrar bien los tiempos...
    
      Despues del intro de guitarra y teclado...
           Am      G9           F            Em
    G|------------|------------|------------|------------|
    D|575---------|------------|------------|2-----------|
    A|---7--------|------------|------------|------------|
    E|-----5-5-5-5|3--3--3--3--|1--1--1--1--|---0--0--0--|
    
      Yo, caminare...
      Am           G9           F            Em
    G|------------|------------|------------|------------|
    D|------------|------------|------------|x--2--x--2--|
    A|------------|------------|------------|------------|
    E|5--5--5--5--|x--3--x--3--|x--1--1--1--|------------|
    
      C            Csus4        Gm           C7 
    G|------------|------------|------------|------------|
    D|--2---------|----2-------|------------|------------|
    A|3---3-3--3--|2-3---33-3-3|------5-----|3--3--3--3--|
    E|------------|------------|3--6-----6--|----
  •   Am            G9            F             Em
    G|-----------------------|-----------------|-------------|-------------|
    D|-----------------------|-----------------|-------------|2--2---------|
    A|10H1210----------------|-----------------|-------------|-------------|
    E|--------12/5-5-5-55-5/3|--3--3--33--3/1--|1--1--11--1--|------00--0--|
    (es 10, 12, 10 en A...no confundir con 1, 0, 1, 2, 1, 0)
      Yo, caminare...
      Am            G9           F            Em
    G|-------------|------------|-------------|------------|
    D|-------------|------------|-------------|x--2--x-----|
    A|-------------|------------|-------------|------------|
    E|5--5--55--5--|x--3--x--3--|x--1--11--1--|---------0--|
    
      C            Csus4        Gm           C7
    G|------------|-----------|------------|-------------|
    D|--2---------|----2------|------------|-------------|
    A|3---33--3--x|2-3---33-3-|------5-----|x--3--33--3--|
    E|------------|-----------|3--6-----6--|-------------|
    
      Gm           D            F            B7sus4
  • +
    ¡Colabora con nosotros!
    Envíanos tu versión de esta canción
  • Tutorial
    HD
    Como tocar Cuando pase el temblor (Soda Stereo)
    17:18
  • Tutorial
    Como tocar Cuando Pase el Temblor Parte 4 Soda Stereo
    0:27
  • Tutorial
    Cuando pase el temblor - Soda Stereo - Como tocar en Guitarra
    4:14
  • Tutorial
    HD
    Como tocar CUANDO PASE EL TEMBLOR en guitarra - Soda Stereo [Tutorial Somos Posers]
    8:41
  • Tutorial
    HD
    (Como Tocar)
    Tutorial Guitarra Cuando pase el temblor - Soda Stereo Guitarra Acustica
    5:50

Cuando pase el temblor Lyrics
Yo
caminare entre las piedras
hasta sentir el temblor
en mis piernas
a veces tengo temor (lo se)
a veces verguenza oooooooooh
Estoy
sentado en un crater desierto
sigo aguardando el temblor
en mi cuerpo
nadie me vio partir (lo se)
nadie me espera ooooooooh
Hay una grieta en mi corazon
un planeta con desilusion
Se
que te encontrare en esas ruinas
ya no tendremos que hablar (que hablar)
del temblor
te besare en el temblor (lo se)
ser un buen momento ooooooooh
Hay una grieta en mi corazon
un planeta con desilusion
oh oh oh oh oh oh oh oh oooooh
oh oh oh oh oh oh oooooh el temblor (Despiertame)
cuando pase el temblor (Despiertame)
cuando pase el temblor (Despiertame)
cuando pase el temblor (Despiertame)...
==========CORREGIDO X BANZAI=============




[Cuando pase el temblor acordes][Cuando pase el temblor cifra]
© LaCuerda.net · legal notice · privacy · es · en · pt · contact us
DINAMICO