Guitar Chords » S »Soda Stereo » Persiana Americana (Tab)

Persiana Americana
Soda Stereo

Lyrics, Chords & Tabs for Guitar, Bass & Ukulele

  • e|-------3--2---------|---------3--2---------|---------3--2---------|---9-|]
    B|-1--3--------3--1---|---1--3--------3--1---|---1--3--------3--0---|---7-|]
    G|--------------------|----------------------|----------------------|---7-|]
    D|--------------------|----------------------|----------------------|-----|]
    A|--------------------|----------------------|----------------------|-----|]
    E|--------------------|----------------------|----------------------|-----|]
    
    [|  D  |  D  |  Bm  |  Bm  |   (x2)]
    
    
              D                         Cadd9  G
    Yo te prefiero fuera de foco,inalcanzable
    
              D                           Cadd9  G
    yo te prefiero irreversible, casi intocable.
    
    
              Em        Cadd9
    Tus ropas caen lentamente
    
    
  • INTRO [ D G D G Bm ] (2)
    
              D                             
    Yo te prefiero                          
     G        D    G       C   Bm           
    fuera de foco, inalcanzable             
    
              D                             
    yo te prefiero                          
    G       D      G        C   Bm          
    irreversible, casi intocable            
    
    
               Em        C                  
    Tus ropas caen lentamente               
              Em          C                 
    soy un espia un espectador              
             Em            C                 
    y el ventilador desgarrandote            
                 D                          
    
  • E|----------------------------------------------------------9--9-9/---------|
    B|-----------8--7---------------8--7--------------8--7------7--7-7/---------|
    G|--------7-------7----------7-------7---------7-------7----7--7-7/---------|
    D|----10------------10----10-----------10(x2)------------9--7--7-7/---------|
    A|--------------------------------------------------------------------------|
    E|--------------------------------------------------------------------------|
    
             D
    Yo te prefiero
                      C9
    Fuera de foco, inalcanzable
              D
    Yo te prefiero
                      C9
    Irreversible, casi intocable
    
               Em        C9
    Tus ropas caen lentamente
             Em         C9
    Soy un espía un espectador
    
  • e|------------------------------------------------------9---------|]
    B|-----------8--7---------------8--7----------8--7------7---------|]
    G|--------7-------7----------7-------7-----7-------7----7---------|]
    D|----10------------10----10-----------10------------9--9---------|]
    A|----------------------------------------------------------------|]
    E|----------------------------------------------------------------|]
    e|----------------------------------------------------------------|]
    B|-----------8--7---------------8--7----------8--7------7bb-------|]
    G|--------7-------7----------7-------7-----7-------7----7bb-------|]
    D|----10------------10----10-----------10------------9------------|]
    A|----------------------------------------------------------------|]
    E|----------------------------------------------------------------|]
    
              D       G        D    G       C   Bm
    Yo te prefiero   fuera de foco, inalcanzable
    e|--------------------------------------------------1---3-|]
    B|--------------------------------------------------3---5-|]
    G|--------------------------------------------------3---5-|]
    D|--------------------------------------------------------|]
    A|--------------------------------------------------------|]
    
  • DE AHORA EN ADELANTE MIS TABLATURAS VAN PARA ALGUIEN MUY MUY HERMOSA
    INTELIGENTE CARIÑOSA MEJOR DICHO...
    A LOS QUE QUIERAN DARME LAS GRACIAS POR SUBIR ESTAS TABLATURAS NO ME DEN
    LAS GRACIAS A MI,SINO A ELLA
    a la hermosa "Katherin J Gonzalez"
    gracias bonita por tu cariño
    si lees esto, recuerda: que siempre me tendras a tu lado incondicionalmente
    un beso nena
    
    
    
    EFECTOS:
    
    Efecto púa o tremolo bar
    Delay.
    Middle Gain Distortion
    Ambinient Chorus Echo Distortion
    
    
    EQUIPOS:
    
    Vox AC30.
    Delay TC2290 O Nextech de Roland.
    Eventide Ultra Harmonizer ó Yamaha Harmonizer.
    Mezclador YAMAHA ó Marshall.
    Pedalera Midi Mitigator.
    
    GUITARRA IBANEZ Rg2
    
    INTRO: Min 0.34
    e|------------------------------------------9---------|]
    B|-----------8--7---------------8--7--------7---------|]
    G|--------7-------7----------7-------7------7---------|]
    D|----10------------10Bis-10-----------9----9---------|]
    A|-----------------------------------------------------|]
    E|---------------------------------------------------
  • de mexico para toda latinoamerica espero esta sea la correcta, 
    mas bien esta es la corecta y no sean cabrones por que me costo 
    mucho trabajo y los que piensen que no pues pinches sordos 
    lavense las orejas
    
    afinacion standard (e,a,d,g)
    
    guitarra y bateria solos en intro
    
    riff 1
    
    yo te prefiero .............
    
    G--------------------------------------------------------------------------
    D--------------------------------------------------------------------------
    A-15/5-5-5-5-5-5-5-5-0-2-5-5-5-5-5-5-5-5-0-2-3-3-3-3-3-3-3-2---------------
    E------------------------------------------------------------3-3-3-3-3-3-3-
    
    riff 2
    
    tu ropas caen..................
    
    G---------------------------------------
    D---------------------------------------
    A-7-7-7-7-7-7-3-3-3-3-3-----------------
    E---------------------------------------
    
    puente
    
    se que te excita pensar................
    
    G---------------------------------------
    D---------------------------------------
    A-5-5-5-5-5-5
  • Canción: Persiana Americana
    
    Tabbed by: Roberto 'el destajador' Ferrín
    ------------------------------------------------------------------------------
    Tab notation:
                    |--x--|> Hi-Hat(cerrado)
    C = Cymbals     |--X--|> Crash de 16'
                    |--&--|> Ride de 20'
    
    S = Snare Drum  |--o--|> Le pegas con un drumstick (golpe normal)
    
    B = Bass Drum   |--O--|> un beat
    
    T = Toms        |--O--|> es el tom grande
                    |--o--|> es el tom pequeño
    
    FT = Floor Tom  |--0--|> un beat
    ------------------------------------------------------------------------------
    
    Introducción:
    
    Parte A:
    C  |---x-----x----x-----x-x-|
    T  |---O-o-O---O-o-O--------|esta parte se toca 4 veces
    FT |-0-------0-------0-0----|
    
    Parte B:
    C |-x---x---x---x|--x---x---x---x-|
    S |-----o-------o|------o-------o-|se toca 4 veces
    B |-O-----O---O--|----------O-O---|
    
    Nota: en la parte B del intro se escucha que la parte A sigue tocandose, 
    en efecto, 
  • LaCuerda: Soda Stereo - Persiana Americana
    
    
                Soda Stereo
                Persiana Americana
                AUTOR: Gustavo Cerati, Daffunchio
                ALBUM: Signos Soda
    Transcripción.-CJavier
    
    INTRO [ D G D G Bm ] (2)
    
              D
    Yo te prefiero
    remirefa#fa#
             F#m                  A
    fuera de foco,     inalcanzable-e
    reremifa#fa#       mifa#sollasila
              D
    yo te prefiero
     remirefa#fa#
           F#m                        A
    irreversible,       casi-in   tocable-e
    reremifa#fa#        mifa#     sollasi la
    
                D            F#m
    Tus ropas  caen -   lentamente
    fa# solfa#  la     -lasollala
                 Bm                     F#m
    soy   un  espí-i-     aun    espectador
    fa#   sol  lasila-    sol    fa#sollafa#
                Em                     C#
    y-el     ventilador          desgarrandote
    si        do#miredo# -       sido#miredo#
                          G
    se    que    te-ex   cita     pensar
    sol   la     sol     redo#    sido#
    A                                D
    hasta 
  • +
    ¡Colabora con nosotros!
    Envíanos tu versión de esta canción
  • Tutorial
    Persiana Americana - Soda Stereo - Como tocar en guitarra
    6:47
  • Tutorial
    HD
    Como tocar Persiana Americana (Soda Stereo)
    50:31
  • Tutorial
    HD
    PERSIANA AMERICANA - Soda Stereo: SEGUNDAS GUITARRAS + TAB
    5:44
  • Tutorial
    HD
    Persiana Americana - SODA STEREO MVV (tutorial)
    4:39
  • Tutorial
    HD
    Como Tocar Persiana Americana - Soda Stereo [Tutorial Guitarra]
    5:45

Persiana Americana Lyrics
Yo te prefiero
fuera de foco, inalcanzable
yo te prefiero
irreversible, casi intocable
Tus ropas caen lentamente
soy un espia un espectador
y el ventilador desgarrandote
se que te excita pensar
hasta donde llegaré
Es dificil de creer
creo que nunca lo podre saber
a traves de mi persiana americana
Es una comedia agradable
el instante previo
es todo un desgaste
una necesidad más que un deseo
Estamos al borde de la corniza
casi a punto de caer
no sientes miedo, sigues sonriendo
se que te excita pensar hasta donde llegare
Tus ropas caen lentamente
soy un espia un espectador
y el ventilador desgarrandote
se que te excita pensar hasta donde llegare
Es dificil de creer
creo que nunca lo podre saber
lo que pueda suceder
no gastes fuerzas para comprender
a traves de mi persiana americana
Dificil, dificil de creer
creo que nunca lo podre saber
a traves de mi persiana americana




[Persiana Americana acordes][Persiana Americana cifra]
© LaCuerda.net · legal notice · privacy · es · en · pt · contact us
DINAMICO