Guitar Chords » S »Soda Stereo » la Ciudad de la Furia (Tab)

la Ciudad de la Furia
Soda Stereo

Lyrics, Chords & Tabs for Guitar, Bass & Ukulele

  • C9-G/B
    
    Intro la hace el teclado
    
    Arpegio: (Em7 G A)X2 (G G A)X2   (Em7 G A)X2 (G G A)X2
    
    
         Em7      G           A             Em7 G A
    Me verás volar por la ciudad de la furia
    G            G        A  G            G        A
    donde nadie sabe de mí,  y yo soy parte de todos
         Em7      G           A             Em7 G A
    nada cambiará, con un aviso de curvas
    G            G        A   G            G
    en sus caras veo el temor, ya no hay fábulas
            A
    en la ciudad de la furia.
    
    Arpegio
    
    
  • DO SOL/SI LA SOL/SI (Arpegios una estrofa)
    
    
         MIm      (SOL)      LA        MIm   SOL LA
    Me verás volar por la ciudad de la furia
    (SOL)       LA         (SOL)     LA
    donde nadie sabe de mí, y yo soy parte de todos
         MIm      (SOL)    LA      MIm    SOL LA
    nada cambiará, con un aviso de curvas
    (SOL)        LA           (SOL)
    en sus caras veo el temor, ya no hay fábulas
    (LA)               MIm
    en la ciudad de la furia.
    
    
    MIm SOL LA (2 veces) SOL LA (2 veces)
    
    
         MIm       (SOL)   LA      MIm  SOL LA
    Me verás caer, como un ave de presa
    
  •  Cadd9  G/B
    |-----|--3--|---5----5----5----5----5----7----7----7----10---9-|
    |--3--|--3--|--8----8----8----8----8----8----8----8----8----8--|
    |--0--|--0--|-9----9----9----9----9----9----9----9----9----9---|
    |--2--|--0--|--------------------------------------------------|
    |--3--|--2--|--------------------------------------------------|
    |-----|-----|--------------------------------------------------|
    
    
    || -- 5----5----5----5----5- ||  |---7----7----7----10---9-|
    || --8----8----8----8----8-- ||  |--8----8----8----8----8--|
    ||O-9----9----9----9----9---O||  |-9----9----9----9----9---|
    ||O-------------------------O||  |-------------------------|
    || ------------------------- ||  |-------------------------|
    || ------------------------- ||x2|-------------------------|
    
    
    |---10---10---10---10---10-----|
    |--8----8----8----8----8-------|
    |-9----9----9----9----9--------|
    
  • Intro: DO9 SOL/SI
           Riff x2
    
              x5      x3                    x2       x9
    1ª--------/------7/------7-10---9/------/--------/
    2ª----8-10/----8--/----8---------/----10/----8-10/
    3ª--9-----/--9----/--9--------9--/--9---/--9-----/
    4ª--------/-------/--------------/------/--------/
    5ª--------/-------/--------------/------/--------/
    6ª--------/-------/--------------/------/--------/
             x2                       x2
    1ª------7/------10---9/----10---10/----10---9/
    2ª----8--/----8-------/-------8---/-------8--/
    3ª--9----/--9------9--/--9--------/--9-------/
    4ª-------/------------/-----------/----------/
    5ª-------/------------/-----------/----------/
    6ª-------/------------/-----------/----------/
    
    
     MIm7 SOL LA x2
    
  • B:I-3~--------3-----3---3---I----------------I
    G:I-0~----0---0-----0---0---I----------------I
    D:I-2~----2---2----(0)-(2)--I----------------I
    A:I-2~---(0)-(2)------------I-------5--7-7~--I
    E:I-------------------------I---5s7----------I
    
    e:I------------------------------------I------------------------I
    B:I-----------------------------12-----I-----12-----------12----I
    G:I--s/11--------------------12----12~-I--14-----12-14-------12-I
    D:I-------12-----------12-14-----------I---------------14-------I
    A:I----------14--12s14-----------------I------------------------I
    E:I------------------------------------I------------------------I
    
    e:I--------------I
    B:I-15b17~-15~~--I
    G:I--------------I
    D:I--------------I
    A:I--------------I
    E:I--------------I
    
    
  • e|-----5---|-----7--|-----10-----9--|
    B|---8-----|---8----|---8------8----|
    G|-9-------|-9------|-9------9------|
    D|---------|--------|---------------|
    A|---------|--------|---------------|
    E|---------|--------|---------------|
    
         X5        X4          X1            X5
    e|-----5---|-----7--|-----10-----9--|-----10--
    B|---8-----|---8----|---8------8----|---8-----
    G|-9-------|-9------|-9------9------|-9-------
    D|---------|--------|---------------|---------
    A|---------|--------|---------------|---------
    E|---------|--------|---------------|---------
    
    Riff1
        Em7   G     A
    e|-----------------|
    B|----3----3-----2-|
    G|---0----0-----2--|  X2
    
  • x2 veces
    G|------|----|----|
    D|------|----|----|
    A|------|----|----|
    E|0-00-0|3-3-|5-5-|
    
      X2 VECES
    G|--------|---|
    D|--------|---|
    A|--------|---|
    E|3-33-3-3|5-5|
      x2 veces
    G|------|----|----|
    D|------|----|----|
    A|------|----|----|
    E|0-00-0|3-3-|5-5-|
    
      X2 VECES
    G|--------|---|
    D|--------|---|
    A|--------|---|
    E|3-33-3-3|5-5|
      x2 veces
    G|------|----|----|
    D|------|----|----|
    A|------|----|----|
    E|0-00-0|3-3-|5-5-|
    
      X2 VECES
    G|--------|---|
    D|--------|---|
    A|--------|---|
    E|3-33-3-3|5-5|
      x2 veces
    G|------|----|----|
    D|------|----|----|
    A|------|----|----|
    E|0-00-0|3-3-|5-5-|
    
      X2 VECES
    G|--------|---|
    D|--------|---|
    A|--------|---|
    E|3-33-3-3|5-5|
      x2 veces
    G|------|----|----|
    D|------|----|----|
    A|------|----|----|
    E|0-00-0|3-3-|5-5-|
    
      X2 VECES
    G|--------|---|
    D|--------|---|
    A|--------|---|
    E|3-33-3-3|5-5|
      x2 veces
    G|------|----|----|
    D|------|----|----|
    A|------|----|----|
    E|0-00-0|3-3-|5-5-|
    
      X2 VECES
    G|--------|---|
    D|--------|---|
    A|--------|---|
    E|3-33-3-3|5-5|
    
  •                                                        |------3x-------|
    C   |o---------------|----------------|o---------------|---------------|
    H   |--x-x-x-x-------|x-x-x-x-x-------|----------------|---------------|
    t   |----------------|------------o---|----------------|---------------|
    S   |------------o---|----------f-----|----------------|---------------|
    F   |----------------|--------------o-|----------------|---------------|
    B   |o-----o-o-------|o-----o-o-------|o---------------|---------------|
    
                         |-------7x-------|                |-------15x-----|
    C   |o---------------|----------------|o---------------|---------------|
    H   |--x-x-x-x-x-x-x-|x-x-x-x-x-x-x-x-|--x-x-x-x-x-x-x-|x-x-x-x-x-x-x-x|
    t   |----------------|----------------|----------------|---------------|
    S   |----o-------o---|----o-------o---|----o-------o---|----o-------o--|
    F   |----------------|----------------|----------------|---------------|
    B   |o-----o-o-------|o-----o-o-----
  • +
    ¡Colabora con nosotros!
    Envíanos tu versión de esta canción
  • Tutorial
    HD
    Explicado - Como tocar "En la ciudad de la furia" de Soda Stereo en el bajo tutorial#51
    8:44
  • Tutorial
    HD
    En la Ciudad de la Furia - SODA STEREO MVV (tutorial)
    7:05

la Ciudad de la Furia Lyrics
Me verás volar por la ciudad de la furia
donde nadie sabe de mí, y yo soy parte de todos
nada cambiará, con un aviso de curvas
en sus caras veo el temor, ya no hay fábulas
en la ciudad de la furia.
Arpegio
Me verás caer, como un ave de presa
me verás caer, sobre terrazas desiertas
te desnudaré, por las calles azules
me refugiaré antes que todos despierten.
Me dejarás dormir al amanecer
entre tus piernas, entre tus piernas
sabrás ocultarte bien y desaparecer
un hombre alado extraña la tierra.
Me verás volar por la ciudad de la furia
donde nadie sabe de mí, y yo soy parte de todos
con la luz del sol se derriten mis alas
con la ciudad de la furia.
Arpegio
Me verás caer, como una flecha salvaje
me verás caer, entre vuelos fugaces
Buenos Aires se ve, tan susceptible
es el destino de furia es, lo que en sus caras persiste.
Me dejarás dormir al amanecer
entre tus piernas, entre tus piernas
sabrás ocultarte bien y desaparecer
un hombre alado prefiere la noche.
Teclado y Después solo de guitara
Me veras volver
Me veras volver a la ciudad de la furia




[la Ciudad de la Furia acordes][la Ciudad de la Furia cifra]
© LaCuerda.net · legal notice · privacy · es · en · pt · contact us
DINAMICO