Guitar Chords » S »Soda Stereo » Observandonos (Tab)

Observandonos
Soda Stereo

Lyrics, Chords & Tabs for Guitar, Bass & Ukulele

  • INTRO: E
    
    HEY HEY 
    1.)
     E
    FUERA, FUERA FUERA DE MI ORBITA
      D              E
    APAGUEN ESE MONITOR
    1.)
    FUERA, FUERA  FUERA DE LA ATMOSFERA 
    ES COMO ME SIENTO MEJOR
    
    1.)DEJENME, DEJENME RETIREN EL BLOQUEO
    1.)DEJENME, SUELTENME QUIERO DAR UN PASEO
    
    2)
    D             A      E   A     E  
    SI, A NUESTRO ALREDEDOR SATELITES
    D         A       A   E
    SI, OBSERVANDONOS OH OH
    
  • INTRO: Bm E
    
        Bm7      E
    e|---------------------
    B|---------------------
    G|--------2--------1---
    D|-----4--------2------
    A|--2------------------
    E|-----------0---------
    
    HEY HEY
    
    1.)
    
     Bm7    E
    FUERA, FUERA FUERA DE MI ORBITA
      Bm7       E
    APAGUEN ESE MONITOR
    1.)
    FUERA, FUERA  FUERA DE LA ATMOSFERA
    
  • Bueno insisto en sacar y subir estos bajos porq son muy piolas para
    tocar y vale la pena el tiempo que llevasacarlos...
    Espero que lo toquen... Futuros Zetas.... Ja..
    
    
    Empieza con el bajo, si lo tocan asi como B/D y E7 suena mucho mas
    lindo y completo.
    
    g----7---7---7-----6_7-----
    D----7---6---7-----5_6----- (X2)
    A-------------4-5----------
    E--7---0---7-----00--------
    
    0:13
    Verso 1
    
    g----7---7---7-----6_7-----
    D----7---6---7-----5_6----- (X4)
    A-------------4-5----------
    E--7---0---7-----00--------
    
    "Fuera, fuera, fuera de mi orbita, apaguen ese monitor
    fuera, fuera, fuera de la atmosfera es como me siento mejor
    Dejenme, dejenme, retiren el bloque
    Dejenme, sueltenme, quiero dar un paseo..."
    
    
    0:42
    Estribillo
    
    g-------------6_7---6_7---------------------------------------
    D-------------5_6---5_6---------------------------------------
    A--5----5----------------5----5----------------------------7--
    E---5-7--5--0-----0-------5-7--7-5--4_5_4---5-7---5-4---5-----
    
    "Si a nuestro alrededor Sat
  • +
    ¡Colabora con nosotros!
    Envíanos tu versión de esta canción

Observandonos Lyrics
HEY HEY
1.)
FUERA, FUERA FUERA DE MI ORBITA
APAGUEN ESE MONITOR
1.)
FUERA, FUERA FUERA DE LA ATMOSFERA
ES COMO ME SIENTO MEJOR
1.)DEJENME, DEJENME RETIREN EL BLOQUEO
1.)DEJENME, SUELTENME QUIERO DAR UN PASEO
2)
SI, A NUESTRO ALREDEDOR SATELITES
SI, OBSERVANDONOS OH OH
1..)FOTOS, FOTOS FOTOS DE TU CAMA
VIGILAN CADA SENSACION
1)LAS CALLES PELIGRAN
LOS BARES SE CIERRAN
CUIDADO CON LA COLISION
2)SI, A...
1.)FUERA..
2)SI, A..




[Observandonos acordes][Observandonos cifra]
© LaCuerda.net · legal notice · privacy · es · en · pt · contact us
DINAMICO