Guitar Chords » S »Soda Stereo » Lo Que Sangra (Tab)

Lo Que Sangra
Soda Stereo

Lyrics, Chords & Tabs for Guitar, Bass & Ukulele

  • Riff:  E]-5-5-5-8-4-4-4-8-5-5-5-8-4-4-5-
           B]-6-6-6-6-6-6-6-6-6-6-6-6-6-6-6-
           G]-7-7-7-7-7-7-7-7-7-7-7-7-7-7-7-
           D]-------------------------------
           A]-------------------------------
           E]-------------------------------
    
    
    Intro: (Riff Lam Sol5 La5-Lam Sol5 La5)x2
    
    Riff
       Yo conozco ese lugar
                         (LAm SOL5 LA5)x2
    donde revientan las estrellas
    Riff
       Yo conozco la escalera en espiral
              (LAm SOL5 LA5)
    hacia la cupula
    
    SIb        DO       SIb   DO
    
  • Dm    Dbm5        Dm
    Yo conozco ese lugar 
             Dbm5          Am 
    donde revientan las estrellas
    
    Yo conozco la escalera en espiral
    hacia la cúpula
      
    Bb        Bb/C    Bb     Bb/C
    Los rayos X no penetran
    G7
    los oscuros vidrios de una limousine
    
    Dm7      A7sus4  A7   C9      
        Te resca-    ta-  ré
    Dm7       A7           F G7
        Te resca-    ta-  ré
    
    Bbmaj7   C9            Am7
    Los guardianes pierden el honor
    
  • INTRO:
    
    
    e/----5--5-5-8-4--4-4-8--5--5-5-8-4--5--5--5----------5--5--------/
    b/----6--6-6-6-6--6-6-6--6--6-6-6-6--6--5--5----------5--5--------/
    g/----7--7-7-7-7--7-7-7--7--7-7-7-7--7--5--5----------5--5--------/
    d/--------------------------------------7--7----------7--7--------/
    a/--------------------------------------7--7----------7--7--------/
    E/--------------------------------------5--5---3-5----5--5---3-5--/  X2
    
    
    
    e/----5--5-5-8-4--4-4-8--5--5-5-8-4--5--5--5----------5--5--------/
    b/----6--6-6-6-6--6-6-6--6--6-6-6-6--6--5--5----------5--5--------/
    g/----7--7-7-7-7--7-7-7--7--7-7-7-7--7--5--5----------5--5--------/
    d/--------------------------------------7--7----------7--7--------/
    a/--------------------------------------7--7----------7--7--------/
    E/--------------------------------------5--5---3-5----5--5---3-5--/  X2
    
    Yo conozco ese lugar donde revientan las estrellas
    Yo conozco la escalera en espiral hacia la cúpula
    
    
    e/----1------------0------1--------0-----------------------
  • Intro: [Dm Dm9 Am7][Am G A]
    
    e-5-5-5-8-4-4-4-8-5-5-5-8-4-4-5-
    B-6-6-6-6-6-6-6-6-6-6-6-6-6-6-6-
    G-7-7-7-7-7-7-7-7-7-7-7-7-7-7-7-
    D-------------------------------
    A-------------------------------
    E-------------------------------
    
      Am  G A Am  G A                       X 2
    e-0b0-----0b0-----
    B-1-------1-------
    G-2-------2-------
    D-2-------2-------
    A-0-------0-------
    E-----3-5-----3-5-
    
    Versos:
    
    e-5-5-5-8-4-4-4-8-5-5-5-8-4-4-5-
    
  • Bueno... hice lo que pude para sacar el bajo de esta cancion. 
    Hoy en día hacen falta mas bandas como Soda y mas bajistas como Zeta Bosio...
    
    Intro:
    
    (Dos compases en silencio. Comienza en 00:05)
    
     |       |       |       |        |       |       |       |        
    |--------------------------------|--------------------------------|
    |--------------------------------|--------------------------------|
    |--------------------------------|--------------------------------|
    |5-----5---5-3---5---------------|5-----5---5-3---5---------------|
    
     |       |       |       |        |       |       |       |        
    |--------------------------------|--------------------------------|
    |----------------------3---3-----|--------------------------------|
    |5---------------3---5-----------|5-----------5---3---5-----------|
    |--------5---7-------------------|--------5-------------3---------|
    
     |       |       |       |        |       |       |       |        
    |-------------------------------
  • +
    ¡Colabora con nosotros!
    Envíanos tu versión de esta canción
  • Tutorial
    Lo que sangra (La cúpula)
    Acordes Letra Rasgueo Soda Stereo Cómo tocar acordes tutorial
    10:20

Lo Que Sangra Lyrics
Yo conozco ese lugar
donde revientan las estrellas
Yo conozco la escalera en espiral
hacia la cúpula

Los rayos X no penetran
los oscuros vidrios de una limousine
Te resca- ta- ré
Te resca- ta- ré
Los guardianes pierden el honor
mientras desfilan
Hay tanto fraude a nuestro alrededor
(comprenderás)
Es amor lo que sangra
desde el cielo en la cúpu la ...
Y bueno asi sucesivamente sigue la canción,espero que
les sirva y guste,chaus!
Acá les dejo los acordes del tema.

AGUANTE LOS REDONDOS Y EL ROCK ARGENTINO!!




[Lo Que Sangra acordes][Lo Que Sangra cifra]
© LaCuerda.net · legal notice · privacy · es · en · pt · contact us
DINAMICO