Guitar Chords » S »Soda Stereo » Ella uso mi cabeza como un revolver (Tab)

Ella uso mi cabeza como un revolver
Soda Stereo

Lyrics, Chords & Tabs for Guitar, Bass & Ukulele

  •        [C5 D#5 D5 C#5]x4
    
    C        Em      Bb   Dm
      Ella usó mi cabeza como un
    
       C5   D#5   D5   C#5
    revolver
    
    C          Em        Bb     Dm
      e incendió mi conciencia con sus
    
       C5   D#5   D5   C#5
    demonios.
    
    C           Em    Bb     Dm      G
      Me vi llegando tarde, tarde a todo.
    
    Bb                         Am
      Después de un baño cerebral
    
    
  • C D#5 D9 C#m x4
    
    
    C      Em      A#sus2
    Ella uso mi cabeza
     Am        C     D#5 D9 C#m
    como un revolver
    C       Em        A#sus2
    e incendio mi conciencia
     Am          C     D#5 D9 C#m
    con sus demonios
    C         Em    A#sus2
    me vi llegando tarde,
     Am      G
    tarde a todo
    
    A#sus2                   Am
    Despues de un baño cerebral
    A#sus2
    estaba listo para ser amado
    
  • E-----------
    B------2----
    G---5-3-1---
    D--5-----3--
    A-3-------4-
    E-----------
    
    Intro: (C7+ F7+)x4 Riff x4 C5 B5 Bb5 A5 C
    
    C5    B5      Bb5
    Ella usó mi cabeza
    A5         C     RIFF
    como un revólver
    C5      B5        Bb5
    e incendió mi conciencia
    A5          C    RIFF
    con sus demonios
    me vi llegando tarde
    tarde a todo
    
    
  • C     E      A#sus2
    Ella usó mi cabeza
      Am       C    D5 - Dm5 - Cm5 -
    como un revólver
    C    E         A#sus2
    e incendio mi conciencia
     Am         C    D5 - Dm5 - Cm5 -
    con sus demonios
    C    E        A#sus2
    me vi llegando tarde
     Am        C
     tarde a todo
     A#sus2                A#m
    despues de un baño cerebral
               A#sus2
    estaba listo para ser amado
        G#                 G
    Pasa el tiempo y ahora creo
    G#
    que el vacio
    
  •    A#7   A7   G#7   G7
    1|-6-6-|-5-5-|-4-4-|-3-3-|
    2|-6-6-|-5-5-|-4-4-|-3-3-|
    3|-7-7-|-6-6-|-5-5-|-4-4-|   X2
    4|-6-6-|-5-6-|-4-4-|-3-3-|
    5|-8-8-|-7-7-|-6-6-|-5-5-|
    6|-6-6-|-5-5-|-4-4-|-3-3-|
    
                   (Entra batería)
    1|-6-6-|-5-5-|-4-4-4-4-|-3-3-3------------
    2|-6-6-|-5-5-|-4-4-4-4-|-3-3-3------------
    3|-7-7-|-6-6-|-5-5-5-5-|-4-4-4------------
    4|-6-6-|-6-6-|-4-4-4-4-|-3-3-3-----5-7----
    5|-8-8-|-7-7-|-6-6-6-6-|-5-5-5-----x-x----
    6|-6-6-|-5-5-|-4-4-4-4-|-3-3-3-----3-5----
    
    Punteo
    1|---------------------------------------
    2|---------------------------------------
    3|-----3p5~~-5-3-------------------------
    
  • Ella usó mi cabeza como un revólver (unplugged)
    Comfort y Música para Volar
    
    Nota:
    / : slide
    ~ : dejar sonar
    h : hammer on
    
    G ----------------------
    D --------12-----14-----
    A -13--13----12-----12--
    E ----------------------
    
    G ------------------------
    D ------------------------
    A ------------------------
    E -4-4-4-4-4--3-3-3-3-3---
    
    G -----------------
    D -----------------
    A -3~-6~-5~-4/12/4-
    E -----------------
    
    G ----------------------------
    D ----------------------------  X4
    A -3-3-6-6-6-5-5-5-4-4-4------
    E ----------------------------
    
    "ella usó mi cabeza..."
    G -----------------
    D -----------------
    A -3~-6~-5~-4/12/4-
    E -----------------
    
    G ----------------------------
    D ----------------------------
    A -3-3-6-6-6-5-5-5-4-4-4------
    E ----------------------------
    
    "e incendió mi conciencia..."
    G -----------------
    D -----------------
    A -3~-6~-5~-4/12/4-
    E -----------------
    
    G ----------------------------
    D ----------------------------
    A -3-3-6-6-6-5-5-5-4-4-4------
    E ---------------
  • +
    ¡Colabora con nosotros!
    Envíanos tu versión de esta canción
  • Tutorial
    HD
    Como tocar "Ella uso mi cabeza como un revolver" de Soda Stereo en guitarra
    7:58
  • Tutorial
    HD
    Explicado - Como tocar "Ella uso mi cabeza como un revolver" Soda Stereo en el bajo Tutorial#72
    13:13

Ella uso mi cabeza como un revolver Lyrics
Ella usó mi cabeza como un
revolver
e incendió mi conciencia con sus
demonios.
Me vi llegando tarde, tarde a todo.
Después de un baño cerebral
estaba listo para ser amado.
Pasa el tiempo y ahora creo que
el vacío es un lugar normal
Ella usó mi cabeza como un
revolver.
No creerías las cosas que he hecho
por ella
cobardemente pero sin
vergüenza.
Era una piedra en el agua seca por dentro.
Así se siente cuando la verdad
es la palabra sometida.
Fui tan dócil como un guante y
tan sincero como pude
Ella unsó mi cabeza como un revolver
[C7+ F7+]x2
No creerías las cosas que he hecho
por ella, ella..
Acordes:
x xx x xx x xx x xx
!!!!!! !!!!o! !!!!!! !!!!!! !!!!!!
!!o!!! !!!o!! !o!!!!3 !o!!!!6 !o!!!!5
!o!!!! !!o!!! !!!!!! !!!!!! !!!!!!
!!!!!! !!!!!! !!oo!! !!oo!! !!oo!!
x xx x x x xx
!!!!!! !!!!o! !!!!!! !o!!!! !!!!!o
!o!!!!4 !!o!!! !oo!!! !!!!!! !!!o!!
!!!!!! !o!!!! !!!!!! !!ooo! !!!!o!
!!oo!! !!!!!! !!!!!! !!!!!! !!!!!!
x
!!!!!! !!!!o! !!!!!! !!!!!! !!!!!!
o!!!oo3 !!oo!! o!!!oo4 o!o!oo6 o!o!oo5
!!!o!! !!!!!! !!!o!! !!!o!! !!!o!!
!oo!!! !!!!!! !oo!!! !o!!!! !o!!!!
x x x x
!!!!!! !!!!!! !!!!!! !!!!!! !!!!o!
o!o!oo4 o!o!oo3 !!!!o! !!!!o! !!o!!!
!!!o!! !!!o!! !!o!!! !!o!!! !o!o!!
!o!!!! !o!!!! !o!o!!5 !o!o!! !!!!!!




[Ella uso mi cabeza como un revolver acordes][Ella uso mi cabeza como un revolver cifra]
© LaCuerda.net · legal notice · privacy · es · en · pt · contact us
DINAMICO