Guitar Chords » S »Soda Stereo » Danza Rota (Tab)

Danza Rota
Soda Stereo

Lyrics, Chords & Tabs for Guitar, Bass & Ukulele

  • Am-Am7 D-D4 C Bm E  x 2         
                                   
    1)
    Dm7 
    LAS LUCES ME QUEMAN LA CARA
            Cm7
    Y NO TE PUEDO HALLAR 
             F 
    COMO  SALIR DE ESTE CASTIGO
     
    1)SOY PRISIONERO DE UN RITMO CRUEL 
    AQUI ESTOY RESQUEBRAJANDOME 
    1)HAY ANARQUIA EN MIS MOVIMIENTOS 
    Y AL MISMO TIEMPO ALGUIEN LOS CONTROLA 
    1)SE VAN CAYENDO MIS LIGAMENTOS 
    YO NO PUEDO SER LIBRE SIN VOS
    
    2)
       Am      Am7 D        D4   C
    DAME DAME UNA  PISTA ALGUN RASTRO 
    
  • LA que LA desarrolla
    
    Dm7                 G7
    Las luces me queman la cara
               Cm7
    No te puedo hallar,
                    F7
    Como salir de este castigo
    
       Dm7                              G7
    Soy prisionero de un mundo cruel
                   Cm7
    aquí estoy
                   F7
    requebrajándome
    
    Dm7                            G7
    Hay anarquía en mis movimientos
                Cm7
    y al mismo tiempo
    
  • F              C
    LAS LUCES ME QUEMAN LA CARA
             A# 
    Y NO TE PUEDO HALLAR 
                            G
    COMO  SALIR DE ESTE CASTIGO
     
    1)SOY PRISIONERO DE UN RITMO CRUEL 
    AQUI ESTOY RESQUEBRAJANDOME 
    1)HAY ANARQUIA EN MIS MOVIMIENTOS 
    Y AL MISMO TIEMPO ALGUIEN LOS CONTROLA 
    1)SE VAN CAYENDO MIS LIGAMENTOS 
    YO NO PUEDO SER LIBRE SIN VOS
    
    2)
     G              D          C
    DAME DAME UNA PISTA ALGUN RASTRO 
             D
    PARA HALLARTE  
    B                   F#            B         F# 
    
  •      Am  G  D   G Cadd9  G  Bm7 E   Am  G  D  G  Cadd9  G  Bm7 Esus
    e|----5--3--2---3---0----3---2--0----7--3--2--3----0----3---2--0-------|
    B|----5--3--3---3---3----3---3--0----5--3--3--3----3----3---3--0-------|
    G|----5--4--2---4---0----4---2--1----5--4--2--4----0----4---2--2-------|
    D|-----------------------------------------0---------------------------|
    A|-------------------------------------------------3--------2----------|
    E|----5-------------------------4----5--3-----3---------3------0-------|
    
      (armonicos)
    e|---12+-----------------------------|
    B|---12+-----------------------------|
    G|----------------------------7/9----|
    D|-------------4---0-2-4--7/9--------|
    A|-----------2---2-------------------|
    E|--------0--------------------------|
    
    INTRO Y CORO:
      Am            D            Cadd9           Bm7   E
    e|--------0-------------0--------------3-------2---4----|
    B|------3-----3-----3-------3------3-------3---3---5----|
    
  • Es mi primera transcripción, aún así es fiel al original.
    La versión es de la gira 2007 MVV. Zeta hace unas variaciones
    de la versión de estudio.
    Saludos a los soderos y suban más tabs de bajo che !!!!
    
    
    Intro Teclados
    
    Intro
    
    E -0-(X8)---------------------------------------------I
    
    G ----------------------------------------------------I
    D --------------4-5-7--7------------------------------I
    A ------------5-----------33333-3-22222---------------I
    E -5-5-5-5--5---------------------------0-1-3---------I
    
    G ----------------------------------------------------I
    D ----------------------------------------------------I
    A ------------55555-5--5--33333-3--22222--------------I
    E -55555-5--5----------------------------0-1-3--------I
    
    G ----------------------------------------------------I
    D --------------4-5-7--7------------------------------I
    A ------------5-----------33333-3-22222---------------I
    E -5-5-5-5--5---------------------------0-1-3---------I
    
    G ---------------------------------
  • +
    ¡Colabora con nosotros!
    Envíanos tu versión de esta canción
  • Tutorial
    HD
    Como tocar Danza rota (Soda Stereo)
    30:44

Danza Rota Lyrics
LAS LUCES ME QUEMAN LA CARA
Y NO TE PUEDO HALLAR
COMO SALIR DE ESTE CASTIGO

1)SOY PRISIONERO DE UN RITMO CRUEL
AQUI ESTOY RESQUEBRAJANDOME
1)HAY ANARQUIA EN MIS MOVIMIENTOS
Y AL MISMO TIEMPO ALGUIEN LOS CONTROLA
1)SE VAN CAYENDO MIS LIGAMENTOS
YO NO PUEDO SER LIBRE SIN VOS
2)
DAME DAME UNA PISTA ALGUN RASTRO
PARA HALLARTE
ESTOY BAILANDO UNA DANZA ROTA QUISIERA ESCAPARME
3)
LAS LUCES ME QUEMAN LAS MANOS
CON LA DEPRESION NADIE PUEDE DETENERSE
SOY UNA MUECA ABSURDA FINGIENDO DIVERSION DESEANDOTE.
2)DAME..
2)DAME...
DANZA ROTA...
2)DAME..




[Danza Rota acordes][Danza Rota cifra]
© LaCuerda.net · legal notice · privacy · es · en · pt · contact us
DINAMICO