Guitar Chords » V »Viejas Locas » Lo artesanal (Tab)

Lo artesanal
Viejas Locas

Lyrics, Chords & Tabs for Guitar, Bass & Ukulele

  • INTRO: Dm Gm
    
    Dm
    A veces pienso que esa gente tan cool...
    Gm
    no tiene chispa para conquistar...
    Dm
    si sus monedas lo pueden comprar...
    Gm
    ellos se olvidan de lo artesanal...
    
    Dm                  Gm
    Se olvidan de lo artesanal
                   Dm
    ello se van a olvidar
               Gm
    de lo artesanal
    
    Dm
    Hoy vino es chico del chalet marron...
    
  • INTRO: Bm  Gm
    
    Bm
    A veces pienso que esa gente tan cool
    Gm
    no tiene chispa para conquistar
    Bm
    si sus monedas lo pueden comprar
    Gm
    ellos se olvidan de lo artesanal
    
    Bm                  Gm
    Se olvidan de lo artesanal
                   Bm
    ello se van a olvidar
               Gm
    de lo artesanal
    
    Bm
    Hoy vino es chico del chalet marron
    
  • E-------5-6-5-----|-------5-6-5-----|---------------------|
    B-----6-------6---|-----6-------6---|---------------------|
    G-6/7-----------7-|-6/7-----------7-|-12/10-10/9-9/7-7/5--|
    D-----------------|-----------------|---------------------|
    A-----------------|-----------------|---------------------|
    E-----------------|-----------------|---------------------|
    
    RIFF 1 :
    E-------5-6-5-----|X2
    B-----6-------6---|
    G-6/7-----------7-|
    D-----------------|
    A-----------------|
    E-----------------|
    
    RIFF 2:
    E--------------------------|---------------------------|--------------------|x2
    B----------------------6---|---------------------6-----|--------------------|
    G-5-h(7)--5h(7)--5h(7)---7-|-5h(7)--5h(7)--5h(7)---7-5-|-12/10-10/9-9/7-7/5-|
    D--------------------------|---------------------------|--------------------|
    
  • intro:REm SOLm
    en la intro se toca el parte 1 seguido por el riff 2
    
    Parte 1
    E-------5--6p5-----|-------5--6p5-----|---------------------|
    B-----6--------6---|-----6--------6---|---------------------|
    G---7------------7-|---7-----------7--|-12/10-10/9-9/7-7/5--|
    D------------------|------------------|---------------------|
    A-5----------------|-5----------------|---------------------|
    E------------------|------------------|---------------------|
    
    RIFF 1 :
    E-------5--6p5-----|
    B-----6--------6---|
    G---7------------7-|
    D------------------| X2
    A-5----------------|
    E------------------|
    
    Riff 2:
    
  • Lo ARTESANAL- VIEJAS LOCAS
    
      Intro
    G|-------------------------------------------------------------
    D|----------------------------------------3h5-5--5-0--3-5-5----
    A|-3h5-5--5-0--3-5-5---3h5-5--5-0--3-5-5-----------------------
    E|-------------------------------------------------------------
    
    
    G|-------------------------------------------------------------
    D|-3h5-5--5-0--3-5-5-------------------------------------------
    A|--------------------3h5-5--5-0--3-5-5--3h5-5--5-0--3-5-5-----
    E|-------------------------------------------------------------
    
    
    
    G|-------------------------------------
    D|-3h5-5--5-0--3-5-5---3h5--5--3--2--3-  X3
    A|-------------------------------------
    E|-------------------------------------
    
    
       A veces pienso que... | no tiene chispa para...
    G|-----------------------|----------------------------
    D|-----------------------|-3h5-5--55---3h5-5--5-3-2-3-
    A|-5-5---55---3h5-5--55--|----------------------------
    E|-----------------------|----------------------------
    
      Si sus 
  • +
    ¡Colabora con nosotros!
    Envíanos tu versión de esta canción

Lo artesanal Lyrics
A veces pienso que esa gente tan cool...
no tiene chispa para conquistar...
si sus monedas lo pueden comprar...
ellos se olvidan de lo artesanal...
Se olvidan de lo artesanal
ello se van a olvidar
de lo artesanal
Hoy vino es chico del chalet marron...
tenia unos pesos y queria comprar..
algunas drogas para el sabado...
y lo zarpaban una vez mas...
Se olvidaba de lo artesanal
ello se van a olvidar
de lo artesanal
Pero su galera
se moja cuando llueve
y a su mujer
le hacen la fiesta en un hotel..
Fui a visitarlo a la tumba ayer...
lleve un paquete que lo iba a alegrar...
cuando salio gano y le fue muy bien...
y se olvido de todo lo demas...
Se olvidaba de lo artesanal
ello se van a olvidar
de lo artesanal
Y se mandaban esas fiestas que...
son todas ratas tomando champagne..
pagan mu caro por una mujer...
y luego rien de la sociedad...
Y se rien de lo artesanal
ello se van a olvidar
de lo artesanal
Pero su galera
se moja cuando llueve
y a su mujer
le hacen la fiesta en un hotel..
Espero que les guste :)
aguante viejas y la 25!!




[Lo artesanal acordes][Lo artesanal cifra]
© LaCuerda.net · legal notice · privacy · es · en · pt · contact us
DINAMICO