Guitar Chords » V »Viejas Locas » Homero (Tab)

Homero
Viejas Locas

Lyrics, Chords & Tabs for Guitar, Bass & Ukulele

  • 5|-------            F# CON RASGUIDO!
    6|--5----
    
    INTRO: E G#m A F#   6ta cuerda|--4-2-0-
    
    (1)        E                      G#m
    Cuando sale del trabajo, homero viene pensando
     A                               F#
    Que al bajar del colectivo esquivara unos autos
     E                        G#m
    Cruzara la avenida se metera en el barrio
    A                         F#
    Pasara dando saludos y monedas a unos vagos
     E                         G#m
    Y dobla en el primer pasillo y ve que va llegando
     A                    F#
    Y un ascensor angosto lo lleva a la puerta del rancho
    (2) C#m      F#m
        Dice estar muy cansado
      C#m     F#m
    
  • E|-----------------------------------------|
    B|-----------------------------------------|
    G|-----------------------------------------|
    D|-----------------------------------------|
    A|-2-2-------6-6-6-6-7-7-7-7s2-2-2---------|
    e|-0-0-0-2-0-4-4-4-4-5-5-5-5s4-4-4--2h4h0--|
    
    La segunda guitarra entra despues de esto haciendo
    
    E  G#m A F X 2 LA guitarra 1 aca hace lo mismo que en la intro, la primera vez, la segunda hace este arpegio
       E G#m    A           F#
    E|-0-----4------5-------2-|
    B|-0------4-------5-----2-|
    G|-1---4------6-----6---3-|
    D|-2--5-----7-----------4-|
    A|-2--------------------4-|
    e|-0--------------------2-|
    
    la 2° guitarra hace los acordes, la 1° hace la intro nuevamente y termina haciendo los arpegios pero en vez de terminar en F# termina en B.
    
    
  •     E        G#m          A              F#
    E|-------------------------------------------------------|
    B|-------------------------------------------------------|
    G|-------------------------------------------------------|
    D|-------------------------------------------------------|
    A|-2-2-------6--6-6--6-6--7--7-7--7-7--7s2--2-2----------|
    e|-0-0-0-2-0-4--4-4--4-4--5--5-5--5-5--5s4--4-4--2h4-2-0-|
    
    2° guitarra entra en la segunda vez haciendo E G#m A B (arpegiado)
    1° guitarra aca hace la 2° vez del intro, la segunda hace este arpegio
       E     G#m          A      B
    E|---0-------0----------5------0-----------|Las notas()las agregue
    B|--0------4---4-------5------0-(0)--------|
    G|-1------4------4----6------2---(2) 2/4---|
    D|-------6---------------------------------|
    A|-----------------------------------------|
    e|-----------------------------------------|
    
    Aca empieza la cancion con la guitarra 1 aciendo la intro
    y la segunda arpegia asi:
    
  •     E        G#m    A            F#
    E|-------------------------------------------------------|
    B|-------------------------------------------------------|
    G|-------------------------------------------------------|x3
    D|-------------------------------------------------------|
    A|-2-2-------6-6---7-7-7-6--4-4-6-4----------------------|
    e|-0-0-0-2-0-4-4---5-5-5-4--2-2-4-2----------------------|
    
    en la segunda vuelta de la intro entra el bajo y después la viola
    que hace este arpegio sobre la base de la intro..nada mas que
    al final la intro termina en B:
    
    Guitarra 2: arpegio
    
                                 B
    E|---0----------------0----------|
    B|--0------4-5-4-----0-----------|
    G|-1-----4-------4--1----2/--4---|
    D|-------------------------------|
    A|-------------------------------|
    
  • Como no encontré una buena tablatura para el bajo de Homero de
    Viejas Locas, decidí hacer mi versión propia, y para mi humilde saber creo
    que está bien.
    Empecemos:
    
    INTRO
    Consiste en 3 punteos de guitarra iguales. El primero se toca solamente
    con la guitarra. En el segundo y el tercero, aparecen el bajo y la batería.
    El bajo en el segundo y tercer punteo hace esto:
    
    
             E            G#m              A             F#m
    G------------------------------------------------------------------
    D------------------------------------------------------------------
    A------------------------------------------------------------------
    E--0---0—--0-2-0---4---4---4-4----5---5---5-5---2---2-2-4-2-0------
    
    
    1) VERSOS
    Igual al bajo de la intro pero aplicado a la letra.
    
    
                E                   G#m
    Cuando sale del trabajo, Homero viene pensando
    
          G--------------------------------
          D--------------------------------
          A--------------------------------
          E--0---0—--0-2-0--
  • +
    ¡Colabora con nosotros!
    Envíanos tu versión de esta canción
  • Tutorial
    HD
    HOMERO VIEJAS LOCAS TUTORIAL GUITARRA ACORDES / INTRO PUNTEO
    7:48

Homero Lyrics
Cuando sale del trabajo, homero viene pensando
Que al bajar del colectivo esquivara unos autos
Cruzara la avenida se metera en el barrio
Pasara dando saludos y monedas a unos vagos
Y dobla en el primer pasillo y ve que va llegando
Y un ascensor angosto lo lleva a la puerta del rancho
Dice estar muy cansado
Y encima hoy no pagaron
Imposible bajarse de esta rutina
3|--9s11
(1)
Se hace dificil siendo obrero hacerte cargo del pan
De tu esposa tus hijos del alquiler y algo mas
Y poco disfruta sus dias pensando como hara
Si en ese empleo no pagan y cada vez le piden mas..
Que injusticia q no se valore eficacia y responsabilidad
Porque el hoy se mato pensando y es lo mismo q uno mas
(2)
Homero esta cansado come y se kiere acostar
Vuelve amanecer y entre diario y mates
Se pregunta ¿cuanto mas ?
Y es asi la vida de un obrero es asi
La vida en un barrio es asi
Y pocos son los q van a safar.
Espero ayude en algo...
bosi_r.b.c_14@hotmail.com
Saludos! y nos vemos en velez :D




[Homero acordes][Homero cifra]
© LaCuerda.net · legal notice · privacy · es · en · pt · contact us
DINAMICO