Guitar Chords » V »Viejas Locas » Legalízenla (Tab)

Legalízenla
Viejas Locas

Lyrics, Chords & Tabs for Guitar, Bass & Ukulele

  • Intro:  (LAm  MIm  REm)(LAm MIm REm MIm)
     
    Legalisenla...Lam Mim Rem
    
          LAm                MIm
    Hubo tiempos de guerra, tiempos de paz,
         REm 
    hubo tiempo en que era ilegal.
           LAm           MIm 
    Pero hermano nuestra mente cambio,
         REm
    no podemos seguir con esa tradición.
    LAm            MIm                   REm    
    Son tiempos de cambio y el tiempo al mismo tiempo cambió.
    LAm           MIm           REm    MIm 
    Si hasta la terrible ley seca cayó.
     
    Legalisenla... Lam Mim (Oh Oh) Rem...
    
    Vos tenés conciencia de saber,
    
  •   Am            Em            Dm
    e|-0--0-------|-------0-----|------1----0h1--1-----1--------
    B|-1----1-----|---------0---|-3--3---3---------3------3-----
    G|-2------2-0-|----0------0-|-2-----------------------2--0--
    D|-2----------|-2-----------|-0-----------------------------
    A|-0----------|-------------|-------------------------------
    E|------------|-------------|-------------------------------
    
      Am            Em            Dm
    e|----0-------|-------0-----|----1------|-0-0-0---------
    B|------1-----|---------0---|-3----3--3-|-0-0-0---------
    G|-2------2-0-|----0------0-|-2-------2-|-0-0-0---------
    D|-2----------|-2-----------|-0-------0-|-2-2-2---------
    A|-0----------|-------------|-----------|-2-2-2---------
    E|------------|-------------|-----------|-0-0-0---------
    
    
    Estrofa (Primera guitarra)
    
    e|-x-x----x-x----x-x------
    
  • e--------8-7-----------  -------8-7----------  --------------
    b-----10-------10------  ---10-------10------  -6-6-6-6--6-8--6-5
    g--9---------------9---  -9--------------9---  --------------
    d----------------------  --------------------  --------------
    a----------------------  --------------------  --------------
    e----------------------  --------------------  --------------
    
    
    -------8--7------  ---------8-7---------  ----------------
    ----10------10---  -----10--------10----  --6-6-6-6---6-8-
    -9-------------9-  --9----------------9-  ----------------
    -----------------  ---------------------  ----------------
    -----------------  ---------------------  ----------------
    -----------------  ---------------------  ----------------
    
    ---------------------------------------------------------------
    --5-6--3-5-----------------------------------------------------
    ------------5-7--4-5---2-4---2-0-2---2-4-5---4-5-7---5-7-9---7-9-10--
    ---------------------------------------------------------------
    ---------------------------------------------------------------
    
  •    LAm              MIm             REm
    e-------0--------*-------0-------*------1-----1--------
    b-----1---1------*-----0---0-----*----3---3-----3------
    g-----------22---*-----------00--*--2------------2-----
    d--2-------------*---2-----------*--0------------------
    a--0-------------*---2-----------*---------------------
    E--0-------------*---0-----------*---------------------
    
     LAm              MIm             REm
    e-------0--------*-------0-------*------1--------111---
    b-----1---1------*-----0---0-----*----3---3------333---
    g-----------22---*-----------00--*--2------------222---
    d--2-------------*---2-----------*--0------------------
    a--0-------------*---2-----------*---------------------
    E--0-------------*---0-----------*---------------------
    
    Legalizenla:
    LAm      MIm      REm
    
    Legalizenla:
    
  • Am
    Hubo tiempos de guerra,
    Em
    tiempos de paz,
            Dm
    hubo un tiempo
    en que era ilegal.
            Am
    Pero hermano
             Em
    nuestra mente cambió,
         Dm
    no podemos seguir
    con esta tradición.
    Am              Em
    Son tiempos de cambio
    y el tiempo
       Dm
    al mismo tiempo cambió
    Am            Em         Dm        Em
    
  • Intro de la canción
    
    G|2--2/----------------|
    D|-----2-2/1-0---2-2-2-|
    A|---------------------|
    E|---------------------|
    
    
    
    Estrofa
    
    G|2-------2----------------|--2-2------------|
    D|----2-5---2--2---2-2-1-0-|O-------0--0-----|
    A|--0------------2---------|------0------0-3-|
    E|-------------------------|-----------------|
    
    
    
    Estribillo y solo de la guitarra acústica
    
    G|2--------------------|----2----------|
    D|----2---2--2---2-1-0-|0-----0--0-----|
    A|--0---0------2-------|--0--------0-3-|
    E|---------------------|---------------|
  • +
    ¡Colabora con nosotros!
    Envíanos tu versión de esta canción

Legalízenla Lyrics
Legalisenla...Lam Mim Rem
Hubo tiempos de guerra, tiempos de paz,
hubo tiempo en que era ilegal.
Pero hermano nuestra mente cambio,
no podemos seguir con esa tradición.
Son tiempos de cambio y el tiempo al mismo tiempo cambió.
Si hasta la terrible ley seca cayó.

Legalisenla... Lam Mim (Oh Oh) Rem...
Vos tenés conciencia de saber,
que está bien y que está mal
la policía debe llevarte si robás o asesinás,
pero no entiendo por qué no estoy en libertad,
sólo por fumar la hierba de la paz.
Legalisenla...
...(PUNTEO)...
Legalízenla...
Si mis cigarros tienen otro relleno por qué me miras mal.
Si de la tierra crece hierba santa,
por que no la puedo fumar.
pagamos precios y riesgos muy caros para conseguir,
lo que la naturaleza nos dá nadie nos debería prohibir.
Yo canto esto para que me escuchen y se den cuenta
que hay mucha gente que no quiere estar presa por fumar hierba.
Somos una nueva raza, una nueva generación
Pongamos fin a esta tradición.
Legalisenla...
"Aguante Viejas Locas"




[Legalízenla acordes][Legalízenla cifra]
© LaCuerda.net · legal notice · privacy · es · en · pt · contact us
DINAMICO