Guitar Chords » V »Victor Jara » Luchin (Tab)

Luchin
Victor Jara

Lyrics, Chords & Tabs for Guitar, Bass & Ukulele

  •  RE6      LA7     RE6
    FRAGIL COMO UN VOLANTIN
    SOL7     LA7       RE6
    EN LOS TECHOS DE BARRANCAS
               LA7     RE6
    JUGABA EL NIÑO LUCHIN
    SOL7      LA7      RE6
    CON SUS MANITOS MORADAS
    
    SOL/SI    LA7       SOL9
    CON LA PELOTA DE TRAPO
    SOL/SI    LA7        SOL9
    CON EL GATO Y CON EL PERRO
    SIm     LA      SIm
    EL CABALLO LO MIRABA
    
    
    EN EL AGUA DE SUS OJOS
    
    SE BAÑABA EL VERDE CLARO
    
  • (A)
    G6            D6      G6
    FRAGIL COMO UN VOLANTIN
    Cmaj7         D6    G6
    EN LOS TECHOS DE BARRANCAS
     G6         D6     G6
    JUGABA EL NIÑO LUCHIN
    Cmaj        D6    G6
    CON SUS MANITOS MORADAS
    
    (Coro)
    Cmaj7      D6    Cmaj7
    CON LA PELOTA DE TRAPO
    Cmaj7         D6     Cmaj7
    CON EL GATO Y CON EL PERRO
    Em         D6   F#o4
    EL CABALLO LO MIRABA
    
    (A)
    EN EL AGUA DE SUS OJOS
    
  •      Em9          A7      Em9           A7       Em9          A7
    E||--7------7-----5-----|--7------7-----5-----|--7------7-----5-----|
    B||-----7------7-----5--|-----7------7-----5--|-----7------7-----5--|
    G||-------0----0-----0--|-------0----0-----0--|-------0----0-----0--|
    D||---------------------|---------------------|---------------------|
    A||---------------------|---------------------|---------------------|
    E||--0------------5-----|--0------------5-----|--0------------5-----|
    
    
      G/B          A7       F#    Fin Intro          D6           A7
    ---------------------|----------------------||---2------2-----------|
    --3------3-----2-----|----------------------||------0------0--2-----|
    -----0------0-----0--|----------------------||*-------2----2-----0--|
    -------0----0--------|--4----4----4----4----||*--0------0--------2--|
    --2------2-----0-----|----------------------||----------------0-----|
    ------------------0--|--2----2----2----2----||----------------------|
                                         Verso:    Frá-gil como un volan -
    
      D6                    G7           A7       D6           A7       D6
    --2------2-----2-----|--2------2-----------|--2------2-----------|--2------2-----|
    
  • +
    ¡Colabora con nosotros!
    Envíanos tu versión de esta canción

Luchin Lyrics
FRAGIL COMO UN VOLANTIN
EN LOS TECHOS DE BARRANCAS
JUGABA EL NIÑO LUCHIN
CON SUS MANITOS MORADAS
CON LA PELOTA DE TRAPO
CON EL GATO Y CON EL PERRO
EL CABALLO LO MIRABA
EN EL AGUA DE SUS OJOS
SE BAÑABA EL VERDE CLARO
GATEABA SU CORTA EDAD
CON EL POTITO EMBARRADO
CON LA PELOTA DE TRAPO......
EL CABALLO ERA OTRO JUEGO
EN AQUEL PEQUEÑO ESPACIO
Y AL ANIMAL, PARECIA
LE GUSTABA ESE TRABAJO
CON LA PELOTA DE TRAPO
CON EL GATO Y CON EL PERRO
Y CON LUCHITO MOJADO
SI HAY NIÑOS COMO LUCHIN
QUE COMEN TIERRA Y GUSANOS
ABRAMOS TODAS LAS JAULAS
PA QUE VUELEN COMO PAJAROS
CON LA PELOTA DE TRAPO
CON EL GATO Y CON EL PERRO
Y TAMBIEN CON EL CABALLO




[Luchin acordes][Luchin cifra]
© LaCuerda.net · legal notice · privacy · es · en · pt · contact us
DINAMICO