Guitar Chords » V »Victor Jara » el derecho de vivir en paz (Tab)

el derecho de vivir en paz
Victor Jara

Lyrics, Chords & Tabs for Guitar, Bass & Ukulele

  • SOL6:     300030
    LA7:      x02020
    DO:       X32010
    SIm:      X24432
    Rem:      XX0231
    MI7:      020130
    LAm:      X02010
    LAm7/SOL: 302010
    SOLmaj7:  300002
    
    Introducción:
    
        SOL6    LA7      SOL6    LA7    DO              SIm
    e---0--0----0--0-----0--0----0--0----0--0----0--0----2--2----2--2---
    B----3--3----2--2-----3--3----2--2----1--1----1--1----3--3----3--3--
    G-----0-------0--------0-------0-------2-------2-------4-------4----
    D-------------------------------------------------------------------
    A----------0----------------0-------3-------3-------2-------2-------
    E--3---------------3------------------------------------------------
    
    
  • SOL      LA7 SOL   LA7
    El derecho de vivir
    DO       SIm
    Poeta Ho Chi Minh
       SOL   LA7  SOL   LA7
    Que golpea de Vietnam
      DO        SIm
    A toda la humanidad
      REm   MI    LAm
    Ningún cañón borrará
      SOL           SIm
    El surco de tu arrozal
       SOL   LA7  SOL   LA7 MIm
    El derecho de vivir en paz
    
    Indochina es el lugar
    Más allá del ancho mar
    Donde revientan la flor
    Con genocidio y napalm
    La Luna es una explosión
    
  •   SOL6  LA7    SOL6-LA7
    A)el derecho de vivir
    DO                SIm-5
    poeta Ho Chi Minh
    SOL6  LA7      SOL6-LA7
    que golpeas de vietnam
    DO                SIm5 
    a toda la humanidad
    SOL#-SIb              LAm
    ningun cañon borrara
    LAm/SOL             SIm5 
    el surco de tu arrozal
    SOL6-LA7    SOL/SI-LA7   MIm
    El derecho de vivir en paz
    
    A) Indochina es el lugar
    más allá del ancho mar
    donde revienta la flor
    con genocidio y napalm
    la luna es una explocion
    
  • Intro G6-A7-G6-A7
    
      G6        A7      G6    A7
    A)El derecho de vivir
         C                   Bm
    Sin miedo en nuestro país
            G6      A7    G6    A7
    En conciencia y unidad
          C             Bm
    Con toda la humanidad
       Dm     E        Am
    Ningún cañón borrará
         Cm               G
    El surco de la hermandad
           G6  A7    G6  A7   Em
    El derecho de vivir en paz
    
    
    A)Con respeto y libertad (libertad)
    Un nuevo pacto social
    
  •       G      A7    G     A7
    En conciencia y unidad
        C             Bm
    Con toda la humanidad
       Dm    E        Am
    Ningún cañón borrará
       C                 G
    El surco de la hermandad
         G    A7    G   A7 Em
    El derecho de vivir en paz
    
    Con respeto y libertad
    Un nuevo pacto social
    Dignidad y educación
    Que no haya desigualdad
    La lucha es una explosión
    Que funde todo el clamor
    El derecho de vivir en paz
                          (Paz, paz, Chile quiere paz, paz, paz)
    
    
  • e--------------------------
    B--------------------------
    G--4-2-0-0-2-4----9-9-7-5-7
    D-------2--------2---------     x2
    A--------------------------
    E--------------------------
    
    e------------------------------
    B------------------------------
    G--4-7-7-7-5-4-5--2-5-5-5-4-2-4
    D------------------------------
    A------------------------------
    E------------------------------
    
    e--------------------------
    B--------------------------
    G--4-2-0-0-2-4-2-----------
    D-------2-------2----------
    A--------------------------
    E--------------------------
    
    e--------------------------
    B---------------5----------
    G--4-2-0-0-2-4-2-----------
    D-------2------------------
    A--------------------------
    E--------------------------
  • +
    ¡Colabora con nosotros!
    Envíanos tu versión de esta canción

el derecho de vivir en paz Lyrics
A)el derecho de vivir
poeta Ho Chi Minh
que golpeas de vietnam
a toda la humanidad
ningun cañon borrara
el surco de tu arrozal
El derecho de vivir en paz
A) Indochina es el lugar
más allá del ancho mar
donde revienta la flor
con genocidio y napalm
la luna es una explocion
que funde todo el clamor
el derecho de vivir en paz
A)tio Ho,nuestra cancion
es fuego de puro amor
es palomo-palomar
olivo de olivar
es como el canto universal
cadena que hará triunfar
el derecho de vivir en paz




[el derecho de vivir en paz acordes][el derecho de vivir en paz cifra]
© LaCuerda.net · legal notice · privacy · es · en · pt · contact us
DINAMICO