Guitar Chords » V »Victor Jara » El Arado (Tab)

El Arado
Victor Jara

Lyrics, Chords & Tabs for Guitar, Bass & Ukulele

  • MIm
    APRIETO FIRME MI MANO
                             SOL
    Y HUNDO EL ARADO EN LA TIERRA
                            RE7
    HACE AÑOS QUE LLEVO EN ELLA       ( A  )
    III-4-2-0  IV-4-2-0  V-3-7
    CO...MO NO ESTAR A - GO- TAO
    
    MIm
    VUELAN MARIPOSAS, CANTAN GRILLOS
    
    LA PIEL SE ME PONE NEGRA
                                SI7/FA#
    Y EL SOL BRILLA, BRILLA Y BRILLA         [B]
    
    EL SUDOR ME HACE SURCOS
                                     MIm
    YO HAGO SURCOS A LA TIERRA SIN PARAR
    
    
  • --------0-----0-----------0-----0-----------0-----0---------------0-----------
    ------0---0-----0-------0---0-----0-------0---0-----0-----------0---0---------
    ----5-------5-----5---4-------4-----4---2-------2-----2-------0-------0-------
    --7-----------------5-----------------4---------------------2-----------2/7---
    ----------------------------------------------------------2-------------------
    --------------------------------------------------------0---------------------
    
    --------0-----0-----------0-----0-----------0-----0---------------0-----------
    ------0---0-----0-------0---0-----0-------0---0-----0-----------0---0---------
    ----5-------5-----5---4-------4-----4---2-------2-----2-------0-------0-------
    --7-----------------5-----------------4---------------------2-----------------
    ----------------------------------------------------------2-------------------
    --------------------------------------------------------0---------------------
    
    --------------------------------------
    --------------------------------------
    ----0---0---0---0---0---0---0---------
    --2---0-------------------------------
    ----------3---2---0-------------------
    ----------------------3---2---3/7-7~-- Fin Intro
    
  •   Em
    -----------------0--------0--|-----------0--------|-----------0--------|
    --------------0-----0--------|-----0--------0-----|-----0--------0-----|
    -----------0-----------0-----|--------0--------0--|--------0--------0--|
    --------2--------------------|--2-----------------|--------------------|
    -----2-----------------------|--------------------|--2-----------------|
    --0--------------------------|--------------------|--------------------|
                    Aprieto         fir  -   me  mi      ma  no
    
                                                G
    -----------0--------|-----------0--------|--------------------|--------------------|
    -----0--------0-----|-----0--------0-----|-----------3--------|-----------3--------|
    --------0--------0--|--------0--------0--|--------4-----4-----|--------4-----4-----|
    --------------------|--2-----------------|-----5-----------5--|-----5-----------5--|
    --------------------|--------------------|--------------------|--5-----------------|
    --0-----------------|--------------------|--3-----------------|--------------------|
         y hundo el a  -   ra - do en   la      tie   -  rra                  ha - ce
    
     D7
    -----------2--------|-----------2--------|-----------2--------|---------------|
    
  • +
    ¡Colabora con nosotros!
    Envíanos tu versión de esta canción

El Arado Lyrics
APRIETO FIRME MI MANO
Y HUNDO EL ARADO EN LA TIERRA
HACE AÑOS QUE LLEVO EN ELLA ( A )
III-4-2-0 IV-4-2-0 V-3-7
CO...MO NO ESTAR A - GO- TAO
VUELAN MARIPOSAS, CANTAN GRILLOS
LA PIEL SE ME PONE NEGRA
SI7/FA#
Y EL SOL BRILLA, BRILLA Y BRILLA [B]
EL SUDOR ME HACE SURCOS
YO HAGO SURCOS A LA TIERRA SIN PARAR
AFIRMO BIEN LA ESPERANZA
CUANDO PIENSO EN LA OTRA ESTRELLA [A]
NUNCA ES TARDE, ME DICE ELLA
VUELAN MARIPOSAS.......ETC [B]
NUNCA ES TARDE ME DICE ELLA
COMO YUGO DE APRETADO [B]
TENGO EL PUÑO ESPERANZADO
RQUE TODO CAMBIARA




[El Arado acordes][El Arado cifra]
© LaCuerda.net · legal notice · privacy · es · en · pt · contact us
DINAMICO