Guitar Chords » S »Spinetta y los Socios del Desierto » Nasty people (Tab)

Nasty people
Spinetta y los Socios del Desierto

Lyrics, Chords & Tabs for Guitar, Bass & Ukulele

  •   Riff1        E7(#9)    Riff2        A7(#9)
    e|------------------|| e|-------------8--8-||
    B|-------------8--8-|| B|-------------8--8-||
    G|-------------7--7-|| G|-------------6--6-||
    D|-------------6--6-|| D|-------------7--7-||
    A|-------------7--7-|| A|-------------0--0-||
    E|-0-3-5-3-0-0-0--0-|| E|-0-3-5-3-5-5------||
    
    Riff1
      Nasty people,
    Riff1
     behind the wheels,
    Riff1
     nasty people,
    Riff1
     behind the wheels.
    Riff2
     I don't care
    Riff2
     what you think,
    
  • Este tema lo toca con bajo de 6 cuerdas Marcelo Torres.
    No hay muchas partes del tema donde se justifique usarlo,
    con uno de 4 suena bastante igual. No es un tema difícil.
    Hay pequeñas variaciones, las cuales puse todas.
    
         (1 vuelta)
    G|------*7*----*7*--|      /: Slide up (“arrastrar” hacia adelante)
    D|--------*7*--*7*--|  (*7*): Nota armonica.Se apoya el dedo sin
    A|----------*7*---7-|         pisar la cuerda en el traste  indicado
    E|-0h------------h--|      h: Hammer on (ligado)
    
         (2 vueltas)                     (2 vueltas)
                                         “Nasty people…       …behind the…
    G|------*7*----*7*-|-----------------------------------------------|
    D|--------*7*--*7*-|-----------------------------------------------|
    A|----------*7*----|-----------------------------------------------|
    E|-0h--------------|-0---0-3-5-3-0--0--3--3-3---0-3-5-3-0--0--3--3-|
    
                     …i don´t care…        …what you think
    G|--------------------------------------------
  • +
    ¡Colabora con nosotros!
    Envíanos tu versión de esta canción

Nasty people Lyrics
Riff1
Nasty people,
Riff1
behind the wheels,
Riff1
nasty people,
Riff1
behind the wheels.
Riff2
I don't care
Riff2
what you think,
Riff1
but nasty people,
Riff1
can't stand like this.
Babe you know, I love you,
I can't stand, nasty people,
all around the world,
you know I told you.
Is so sad to be,
in a place like this,
with nasty people,
all around the place.
I don't mind,
not a fuck,
but nasty people,
can't stand like that.
Babe you know, I love you baby,
you know I love you
but I can't stand,
nasty people's world.
Extra! Extra! It's a shit baby.
You know what I mean.
Is so sad to be,
in a place like this,
with nasty people,
all around here.
I don't stand, not a fuck,
but nasty people,
can't think like that.
Babe you know, I love you babe,
you know I love you honey
but I can't stand...
nasty people's world.
You know I told you,
You know I love you but,
I can't stand this...




[Nasty people acordes][Nasty people cifra]
© LaCuerda.net · legal notice · privacy · es · en · pt · contact us
DINAMICO