Guitar Chords » S »Spinetta y los Socios del Desierto » Fuji (Tab)

Fuji
Spinetta y los Socios del Desierto

Lyrics, Chords & Tabs for Guitar, Bass & Ukulele

  • SIm6/11 X-2-4-0-3-0
    A6      X-0-2-2-2-2
    G6      5-5-0-4-3-0
    ?       4-4-4-0-3-0
    
    6ta afinada en Re
    
    Intro:
    
    e------------------------------------------------------------------------
    b--10-----------12p10---9-----------10p9---7-----------10p7---5----------
    g-----------11-------------------9------------------7------------------6-
    d--------0--------------------0------------------0------------------0----
    a-----0--------------------0------------------0------------------0-------
    D--0--------------------0------------------0------------------0----------
    
    --------------------------------------2---2--
    ---7p5---3-----------5p3---2-----3p2------3--
    ------------------4-----------2-----------2--
    ---------------0--------------------------0--
    
  •    D
    e|------------------------------------------------------------------|
    B|-10-------12h10-9-------10h9-7-------10h7-5-------7h5-3-------5h3-|
    G|-------11-------------9------------7------------6-----------4-----|
    D|-----0--------------0------------0------------0-----------0-------|
    A|---0--------------0------------0------------0-----------0---------|
    D|-0--------------0------------0------------0-----------0-----------|
    
    
    e|---------2--2-------------------------------|
    B|-2---2h3----3-------------------------------|
    G|---2--------2-------------------------------|
    D|------------0-------------------------------|
    A|--------------------------------------------|
    D|-0------------------------------------------|
    
    Has dejado noches, noches del adios.
    La certeza de tus ojos cree que me voy...
    
       D
    
  • +
    ¡Colabora con nosotros!
    Envíanos tu versión de esta canción

Fuji Lyrics
? 4-4-4-0-3-0
6ta afinada en Re
Verso:
Has dejado noches noches del adios
La certeza de tus ojos cree que me voy
Has dejado un cielo para amane-cerlo a la vez...
...alli
Cruzas solo puentes puentes entre ti
Las flores y el silencio son cosas de tu amor
Has dejado un rio para atrave-sarlo a la vez...
...alli
Y es que me espera
y cobijo me dará
entre sus manos
hasta que luego venga Fuji
con el mundo.
Y me hace las señales
con las piernas
desde un punto de la calle
desolada
y es que puedo soportar esta distancia,
? (ver arriba)
y es que te has impreso en mi como una luz.
Cruzas solo puentes puentes entre ti
Las flores y el desierto son cosas de tu amor
Has dejado un cielo para amane-cerlo a la vez...
alli...
Y es que me espera
y cobijo me dará
entre sus manos
hasta que luego venga Fuji
con el mundo.
Y me hace las señales
con las piernas
desde un punto de la calle
desolada
y es que puedo soportar esta distancia,
? (ver arriba)
y es que te has impreso en mi como una luz.




[Fuji acordes][Fuji cifra]
© LaCuerda.net · legal notice · privacy · es · en · pt · contact us
DINAMICO