Guitar Chords » S »Spinetta y los Socios del Desierto » Cuenta en el sol (Tab)

Cuenta en el sol
Spinetta y los Socios del Desierto

Lyrics, Chords & Tabs for Guitar, Bass & Ukulele

  •    (C)  S  S  S  S  S  S    N      C.  S C C(C)C
    |-------------------------|-----------------------||
    |-------------------------|--------5-------6---8--||
    |-------------------------|--------5---5-5-5---7--||
    |-------------5-----------|--------7---7-7-3---6--||
    |-------5--7-----7--5-----|--------7---7-7-5---7--||
    |----------------------8--|--5-----5---------------||
    
    Nota 1: La ritmica es muy importante y complicada
    hay que escuchar bien el tema para sacarla
    Igual arriba estan las figuras de cada nota (ver abajo de todo)
    El primer compas es de 2/4 y el segundo de 4/4
    (cosas del flaco...)
    Ademas el primero es acefalo (el punteo no entra en el
    primer tiempo sino que hay un silencio de corchea al
    comienzo)
    
    
    Estribillo
    
    
  • e|------------------------------|--------------------|
    b|------------------------------|--3---3--3----6---8-|
    g|------------------------------|--5---5--5----5---7-|
    d|-----------------5------------|--5---5--5----4---6-|
    a|-------------5/7----5h7p5/3--0|--------------5---7-|
    E|-0-3p0-3p0--------------------|--------------------|
    
    e|---------------|--------------------|--||
    b|---------------|-3---3--3----6---8--|--||
    g|---------------|-5---5--5----5---7--|--||
    d|------7--------|-5---5--5----4---6--|x5||
    a|--5/7---7p5p3-0|-------------5---7--|--||
    E|---------------|--------------------|--||
    
    
    
    Estrofa 1:                                       Am11:      x05530
                                                     D7(#9):    x5456x
    Sobre:                                           E7(#9):    x7678x
           Fill                                      C6/9(b11): x32232
    
  • +
    ¡Colabora con nosotros!
    Envíanos tu versión de esta canción

Cuenta en el sol Lyrics
hay que escuchar bien el tema para sacarla
Igual arriba estan las figuras de cada nota (ver abajo de todo)
El primer compas es de 2/4 y el segundo de 4/4
(cosas del flaco...)
Ademas el primero es acefalo (el punteo no entra en el
primer tiempo sino que hay un silencio de corchea al
comienzo)
Estribillo
compas anterior que esta ligada a la blanca del segundo
compas.
La forma de la concion seria asi:
Versos:
Riff
Tienes un poder mejor
tienes un nuevo reloj
ya no tienes cuenta en el sol
Tienes un mejor lugar
tienes un mejor dormir
ya no tienes cuenta en el sol, no
Estribillo:
Es este mundo de locos y fascistas
dime nena como puedo yo cambiarlo
Riff x2
Versos:
Puedes mejorar la luz
puedes mejorar la cruz
ya no te interesa ayudar, ni ahí
Puedes mejorar el lifting
aunque puedes mendigar
lo que tienes es petróleo en el mar, ah
Estribillo
Riff x3
Versos:
Tienes un lugar mejor
tienes un mejor dormir
ya no tienes la cuenta en el sol
Puedes mejorar el lifting
aunque puedes mendigar
lo que tienes es petróleo en el mar (hasta las
orejas)
Estribillo
Figuras ritmicas:
S: Semicorchea
N: Negra
Cuando la letra esta entre parentesis quiere decir que
es un silencio que dura lo mismo que esa figura
Por ejemplo: (C) Es un silencio de corchea
Cuando la letra tiene al lado un punto (.) quiere decir
que a esa figura ritmica se le suma (liga) la figura ritmica
que equivale a la mitad
Por ejempo C. Es una corchea ligada a una semicorchea
A esto se llama puntillo
Acordes:
Bueno, espero que les sirva y que lo entiendan
cualquier cosa esta mi mail
Valen_SNM




[Cuenta en el sol acordes][Cuenta en el sol cifra]
© LaCuerda.net · legal notice · privacy · es · en · pt · contact us
DINAMICO