Guitar Chords » S »Spinetta y los Socios del Desierto » Cheques (Tab)

Cheques
Spinetta y los Socios del Desierto

Lyrics, Chords & Tabs for Guitar, Bass & Ukulele

  • e|------------------------------------------|
    B|------------------------------------------|
    G|------------------------------------------|
    D|---------------------------------2--1-----|
    A|----------------------0----0--2--------2--|
    E|--0--0----0--4--2--0----------------------|
    
    e|------------------------------------------------|
    B|------------------------------------------------|
    G|------------------------------------------------|
    D|---------------------------------------2--1-----|
    A|----------------------0----0--2--0--2--------2--|
    E|--0--0----0--4--2--0----------------------------|
    
    e|------------------------------------------|
    B|------------------------------------------|
    G|------------------------------------------|
    D|---------------------------------2--1-----|
    A|----------------------0----0--2--------2--|
    E|--0--0----0--4--2--0----------------------|
    
  • E---|--------------------------------------------|----------------------
    B---|--------------------------------------------|----------------------
    G---|--------------------------------------------|----------------------
    D---|-----------------------------------2--1-----|----------------------
    A---|-----------------------0-----0--2--------2--|----------------------
    E---|--0--0-----0--4--2--0-----------------------|----------------------
    
    E---------------------------------------------------|-------------------
    B---------------------------------------------------|-------------------
    G---------------------------------------------------|-------------------
    D------------------------------------------2--1-----|-------------------
    A------------------------0-----0--2--0--2--------2--|-------------------
    E---0--0-----0--4--2--0-----------------------------|-------------------
    
    E---------------------------------------------|-------------------------
    B---------------------------------------------|-------------------------
    G---------------------------------------------|-------------------------
    D------------------------------------2--1-----|-------------------------
    A------------------------0-----0--2--------2--|-------------------------
    E---0--0-----0--4--2--0-----------------------|-------------------------
    
  • Cheques
    Spinetta & Los Socios Del Desierto
    Bajo - Afinación Normal (EADG)
    Transcripción por: MARIANO ANDRÉS FERRERIS (mario82@ciudad.com.ar)
    
    Intro = Riff Guitarra (3 vueltas) Empieza la cuarta vuelta y entran el bajo y la batería
    
    G-|--------------------------------------------------|--------------------------------------------|
    D-|------------------------------------------2--1----|-----------------------------------2--1-----|
    A-|-----------------------0-----0--2--0--2--------2--|-----------------------0-----0--2--------2--|
    E-|--0--0-----0--4--2--0-----------------------------|--0--0-----0--4--2--0-----------------------|
    
    Repite una vez más estas dos barras y ahora tocar
    esto un tiempo menos que antes (esto es lo dificil del riff)
    
    G-|-----------------------------|
    D-|-----------------------------|
    A-|-----------------0-----------|
    E-|--0--0--4--2--0--------------|
    
    
    Versos (son siempre iguales, pongo las primeras frases como referencia)
    G-|---------------
  • INTRO - RIFF
    
    1                                    2
    G-|---------------|---|-------------||---------------|---|------------------|
    D-|---------------|---|-----2-1-----||---------------|---|----------2-1-----|
    A-|---------------|-0-|-0-2------2--||---------------|-0-|-0-2-0-2-------2--|
    E-|--0/-0-0-3-2-0-|---|-------------||--0/-0-0-3-2-0-|---|------------------|
    
    3                                    4
    G-|---------------|---|-------------||---------------|---|
    D-|---------------|---|-----2-1-----||---------------|---|
    A-|---------------|-0-|-0-2------2--||---------------|-0-|
    E-|--0/-0-0-3-2-0-|---|-------------||--0/-0-0-3-2-0-|---|
    
    VERSO
    
    G-|------|--------|------|---------|------|--------|--6~-|
    D-|------|--------|------|---------|------|--------|--7~-|
    A-|------|--------|------|---------|------|--------|-----|
    E-|--0-0-|-0--0-0-|--5-5-|-0-3-0-3-|--0-0-|-0--0-0-|--5~-|
    
    
    SOLO
    
    1
    G-|---------------|------------------|-------18-18/--16--16-|
    D-|-------------7-|------------------|-----
  • +
    ¡Colabora con nosotros!
    Envíanos tu versión de esta canción
  • Tutorial
    HD
    Explicado - Como tocar "Cheques" de Luis Alberto Spinetta en el bajo tutorial#101
    14:18

Cheques Lyrics
Casualmente yo te conocí
una noche como hoy
tu vestido electrico me hirió
vos bailabas y decias:
shake it, shake it, shake it, shake it, shake it baby.
Luego te mudaste con tu séquito
a mi lujosa mensión
hasta casi entro en tu narcogate
vos bailabas y decias
shake it, shake it, shake it, shake it, shake it baby.
De nuestro amor tan solo me queda hoy
un absurdo secador
me fundiste hasta el B.M.W.
y yo lo que hago es garpar cheques
cheques, cheques, cheques, cheques.




[Cheques acordes][Cheques cifra]
© LaCuerda.net · legal notice · privacy · es · en · pt · contact us
DINAMICO