Guitar Chords » S »Spinetta y los Socios del Desierto » Bosnia (Tab)

Bosnia
Spinetta y los Socios del Desierto

Lyrics, Chords & Tabs for Guitar, Bass & Ukulele

  • e|----------------|----------------||
    B|--------4-------|-------4--------||
    G|------3---3---3-|-----3---3---3--||
    D|----6-------6---|---6-------6----||
    A|----------------|----------------||
    E|--4-------------|-4--------------||
    
      Riff 2
    e|----------------------||
    B|----------------------||
    G|-1--1/3--3/4--4/6-7---||
    D|----------------------||
    A|-2--2/4--4/5--5/6-8---||
    E|----------------------||
    
     Riff 1
    Vamos, abre los ojos
    abre las manos ante Bosnia
    algo se está cayendo
    es ese cielo sobre Bosnia
    
  • Fm7: 131111
    Emaj7: x76444
    G#5: 466xxx
    Bb5: 688xxx
    Intro:
          Emaj7(b5)
    e|------------------|
    b|--------4---------|
    g|------3-----3---3-|
    d|----6---------6---|
    a|------------------|
    E|-0----------------|
    
    Estrofa 1:
    (sobre intro)
    Vamos, abre los ojos
    abre las manos ante Bosnia
    algo se está cayendo
    es ese cielo sobre Bosnia
    
    
  • +
    ¡Colabora con nosotros!
    Envíanos tu versión de esta canción

Bosnia Lyrics
Riff 2
Riff 1
Vamos, abre los ojos
abre las manos ante Bosnia
algo se está cayendo
es ese cielo sobre Bosnia
donde un ángel cierra sus alas y llora
donde un ángel cierra sus alas, oh...
Vamos, oye los muros
niños que gritan por doquier en Bosnia
ellos caen como violines
en la rapsodia típica de Bosnia
donde un ángel cierra sus alas y llora
donde el hombre baja sus brazos... oh...
Vamos abre tu boca
deja que entre todo Bosnia
pronto viene un mareo
una visita guiada sobre Bosnia
donde un ángel cierra sus alas y llora
donde el hombre baja sus brazos... oh!
x o x xxx xxx
1o||o|| 1|||o|| |||||| ||||||
|||||| |oo||| |||||| ||||||
|oo||| |||||| |||||| ||||||
||||o| ||||o| 4o||||| ||||||
|||||| |||||| |||||| ||||||
|||||| |||||| |oo||| 6o|||||
|||||| |||||| |||||| ||||||
|||||| |||||| |||||| |oo|||
|||||| |||||| |||||| ||||||




[Bosnia acordes][Bosnia cifra]
© LaCuerda.net · legal notice · privacy · es · en · pt · contact us
DINAMICO