Guitar Chords » S »Silvio Rodriguez » La Gaviota (Tab)

La Gaviota
Silvio Rodriguez

Lyrics, Chords & Tabs for Guitar, Bass & Ukulele

  • LA GAVIOTA
    aquí va la introducción de manera simple,
    no es fácil de efectuar, pero suena super si tocas bien.
    algunas pasadas son ligadas, no lo olvides.
    
    Intro: DO#9·( I-7-4-II-4-5-7-III-4-I-5-4-II-7-5-4-III-6-)-LA9·
    ( II-4-I-0-II-7 )-DO#9·( I-4-II-7-5-IV-7-III-4-6-)-DO#9
    
      DO#9                       LA9
    A)Corrían los días de fines de guerra
    DO#9                     LA9     
    había un soldado regresando intacto
    DO#9                       LA9
    intacto del frío mortal de la tierra
    DO#9                      LA9
    intacto de flores de horror en su cuarto
    
    
    A)Elevo los ojos, respiro profundo
    la palabra cielo se hizo en su boca
    
  •   LA9                       FA9
    A)Corrían los días de fines de guerra
      LA9                     FA9
    había un soldado regresando intacto
    LA9                       FA9
    intacto del frío mortal de la tierra
    LA9                      FA9
    intacto de flores de horror en su cuarto
    
    A)Elevo los ojos, respiro profundo
    la palabra cielo se hizo en su boca
    y como si no hubiera mas en el mundo
    por el firmamento paso una gaviota.
    
      DO   DO4             DO           DO4
    B)Gaviota, gaviota, vals del equilibrio
    REm
    cadencia increíble, llamada en el hombro
    MIm                    FA*
    gaviota, gaviota, blancura de lirio
    
  •   Dom#(x44444)                                 La          La9
    e:----7-h-4-------------4-h-5-h-4-----------------------2--------------0-2-4-2-|
    B:----------4-h-5-h-7-------------5-h-4------------2----2--------0-2-4---------|
    G:--------------------4-----------------6-h-4----2------2------2---------------|
    D:---------------------------------------------------2--2----2-----------------|
    A:---------------------------------------------0--------0--0-------------------|
    E:-----------------------------------------------------------------------------|
    
                          DO#m7  (**)La9                      DO#9
    e:0-------------------4-4---|---------------------0--2--4---------4------------|
    B:--4-2-0-------5-----7-7---|----------0--2---4----------------4--7--5-h-4-----|
    G:------------4---4---4-4--:|--------2------0---0------------6----4---------6--|
    D:----------6---------6-6---|------2-----------------------6------6------------|
    A:--------4-----------4-4---|----0----------------------4---------4------------|
    E:--------------------------|--------------------------------------------------|
                            
    
       LA9                   MI
    e:-----------------0--2--0|
    B:------0--2---4----------|
    
  • ---------------------------------------------------------------------------
    1. INTRO (x2 veces)
    Mano Izquierda: El punteo parece muy difícil,pero el TRUCO está en hacer
     cejilla con fuerza media(índice IZQ. Traste 4,sólo sobre cuerdas 1 y 2);
    y en ubicar el anular en Cuerda 5-Tr 5.Una vez fijos esos dedos,bastará 
    mover meñique y medio Tan pronto termine el 1ER.hammer*(4h5),deslice 
    cejilla rápido hacia Tr.2 para digitar secuencia con anular y meñique.      
    ---------------------------------------------------------------------------    
                    *                      A            ^°
          e|-7-4-------2----4h5r4-2-0-------------------0-^-^--
          b|------4h5----2-------------4h2----0-2-------2-^-^--
          g|--------------------------------------------2-^-^--
          d|---------------------------------------2°°°-2------
          a|-------------------------------(0)----------0------
          E|---------------------------------------------------
             ñ i  i m  i i  a ñ a i    a i      a  i
    .        I I  I I  I I  I I I I I       P I I  P
    
                                                     
            A       **                        C#m        ^      [*** ]
    
  •           DO#9                              LA9
        E|-----4------4------4--------------|---0------0------0------------|
        B|------4----4-4----4-4--4----------|----0----0-0----0-0--0--------|
        G|-------6--6---6--6----6-----------|-----2--2---2--2----2---------|
        D|---------6------6-----------------|-------2------2---------------|
        A|----------------------------------|------------------------------|
        E|----------------------------------|------------------------------|
    
    
          DO#9                       LA9
        A)Corrían los días de fines de guerra
        DO#9                     LA9     
        había un soldado regresando intacto
        DO#9                       LA9
        intacto del frío mortal de la tierra
        DO#9                      LA9
        intacto de flores de horror en su cuarto
    
    
              DO#9                              LA9
    
  • Riff 1 A9  Riff 2 C#m7
    
    Riff 1 A9  Riff 2 C#m7
    
    G#sus4 Esus4 G#sus4 Esus4
    
    RIFF 1
    E--------------------------
    A--------------------------
    D--------------------------
    G----------6------------6--
    B----4-5-7--------7-5-4----
    e-7p4--------4h5h4---------
    
    RIFF 2
    E----------------------------------
    A-0--------------------------------
    D---2------------------------------
    G-----2p4--------------------------
    B--------0p2p4-5-----------4p2p4---
    
  •                                                          DO#m7
    1--------------------0h2-4p2--------------------4-----------
    2-------------0h2/4-----------2/4--2/6--------5-------------
    3----------2--------------------------------4---------------
    4-------2---------------------------------6-----------------
    5---0-----------------------------------4-------------------
    6-----------------------------------------------------------
    x2
    
    DO#9            LA9
    corrian los dias, de fines de guerra
    DO#9                           LA9
    habia un soldado regresando intacto
    DO#9                        LA9
    intacto del frio mortal de la tierra
    DO#9               LA9
    intacto de flores de horror en su cuarto
    
    DO#9-LA9-DO#9-LA9
    
    
  • +
    ¡Colabora con nosotros!
    Envíanos tu versión de esta canción

La Gaviota Lyrics
aquí va la introducción de manera simple,
no es fácil de efectuar, pero suena super si tocas bien.
algunas pasadas son ligadas, no lo olvides.
( II-4-I-0-II-7 )-DO#9·( I-4-II-7-5-IV-7-III-4-6-)-DO#9
A)Corrían los días de fines de guerra
había un soldado regresando intacto
intacto del frío mortal de la tierra
intacto de flores de horror en su cuarto
A)Elevo los ojos, respiro profundo
la palabra cielo se hizo en su boca
y como si no hubiera mas en el mundo
por el firmamento paso una gaviota.
B)Gaviota, gaviota, vals del equilibrio
cadencia increíble, llamada en el hombro
gaviota, gaviota, blancura de lirio
ay de bailarinas, gaviota de asombro
FA#m (VI-2·4 V-0)LAm [VI-4·2·0]
C)Adonde te marchas, canción de la brisa
tan rápida, tan detenida?
disparo en la sien y metralla en la risa
gaviota que pasa y se lleva la vida.
A)Corrían los días de fines de guerra
paso una gaviota volando, volando
lenta como un tiempo de amor que se cierra
imperio de ala, de cielo y de cuando
B)Gaviota, gaviota, vals del equilibrio...
C)Corrían los días de fines de guerra
paso una gaviota volando
y el que anduvo intacto
rodó por la tierra
huérfano, desnudo
herido, sangrando.




[La Gaviota acordes][La Gaviota cifra]
© LaCuerda.net · legal notice · privacy · es · en · pt · contact us
DINAMICO