Guitar Chords » S »Silvio Rodriguez » Ojalá (Tab)

Ojalá
Silvio Rodriguez

Lyrics, Chords & Tabs for Guitar, Bass & Ukulele

  • INTRO: Dm
    
    Cada vez que aparece el acorde Dm tocar:
    
    1º--------- 10--------------  9-------------- 8 -------------- 7 ---------
    2º------ 10--- 10-------- 10--- 10-------- 10--- 10-------- 10-- 10-------
    3º--- 10--------- 10-- 10--------- 10-- 10--------- 10-- 10-------- 10----
    4º- 0--------------- 0----------------0--------------- 0------------------
    5º------------------------------------------------------------------------
    6º------------------------------------------------------------------------
    
    Dm
       Ojala que las hojas no te toquen el cuerpo cuando caigas
    C                                          Dm
      para que no las puedas convertir en cristal
    Em                A
       Ojala que la lluvia deje de ser
     D          A/C#             Bm        Bm/A
    milagro que baja por tu por tu cuerpo
    A                G       F#            Bm Bm/A E7 E7sus4-E7
    
  • INTRO: Dm
    
    Cada vez que aparece el acorde Dm tocar:
    
    1º--------- 10--------------  9-------------- 8 -------------- 7 ---------
    2º------ 10--- 10-------- 10--- 10-------- 10--- 10-------- 10-- 10-------
    3º--- 10--------- 10-- 10--------- 10-- 10--------- 10-- 10-------- 10----
    4º- 0--------------- 0----------------0--------------- 0------------------
    5º------------------------------------------------------------------------
    6º------------------------------------------------------------------------
    
    Dm
       Ojala que las hojas no te toquen el cuerpo cuando caigas
    C                                          Dm
      para que no las puedas convertir en cristal
    Em                A
       Ojala que la lluvia deje de ser
     D          A/C#             Bm        Bm/A
    milagro que baja por tu por tu cuerpo
    A                G       F#            Bm Bm/A E7 E7sus4-E7
    
  • INTRO: Cm
    
    Cada vez que aparece el acorde Cm tocar:
    
    1º-------8-----------7-----------6-----------5------------------------
    2º-----8---8-------8---8-------8---8-------8---8----------------------
    3º---8-------8---8-------8---8-------8---8-------8--------------------
    4º--------------------------------------------------------------------
    5º-3-----------3-----------3-----------3------------------------------
    6º--------------------------------------------------------------------
    
    Cm
       Ojala que las hojas no te toquen el cuerpo cuando caigas
    Bb                                          Cm
      para que no las puedas convertir en cristal
    Dm                G
       Ojala que la lluvia deje de ser
     C          G/B              Am        Am/G
    milagro que baja por tu por tu cuerpo
    G                F       E             Am Am/G D7 D7sus4-D7
    
  •     R6                                  C
          Ojalá pase algo que te borre de pronto,
                E        Am       C        F 
          una luz cegadora, un disparo de nieve.
                        G                      C
          Ojalá por lo menos que me lleve la muerte,
                E        Am       C        F           
          para no verte tanto, para no verte siempre.
                         R1                     R2
          En todos los segundos, en todas las visiones.
        R3                                   R1            R1
          Ojalá que no pueda tocarte ni en canciones.
    
        R1                                        R1  
          Ojalá que la aurora, no de gritos que caigan en mi espalda.
        R2                                   R1   
          Ojalá que tu nombre, se le olvide a esa voz.
        R3                                                   R4
          Ojalá las paredes no retengan tu ruido de camino cansado.
                                       R5
    
  • MI trabajo.
    revise los otros tabs y les faltan algunas cosas, que ya vienen incluidas aqui
    asi que podria decir que el margen de error es de 1% o menos.
    esta va dedicada para mi cuñado Rodrigo Yael Duran Sesin, que me la pidió
    desde Ensenada , B.C. asi que va por ti cuñao. no mas que devuelveme el favor 
    cuidando a mi hermana jaja, bueno ahi les va:
    
    
    
       D                  Dmaj7             D7               D6       
    E ------------------l------------------l-----------------l-----------------l
    A ------------------l------------------l-----------------l-----------------l
    D -0----------------l-0----------------l-0---------------l-0---------------l
    G ---10-------10----l---10-------10----l---10------10----l---10------10----l
    B ------10-------10-l------10-------10-l------10------10-l------10------10-l
    e ---------10-------l---------9--------l---------8-------l---------7-------l
    
       D                  Dmaj7             D7               D6       
    E ------------------l------------------l-----------------l-----------------l
    A ------------------l------------------l-----------------l-----------------l
    
  •      Dm               Dmmaj7             Dm7             Dm6
    E||----------10---------------9-------|----------8---------------7-------|
    B||-------10-------10------10------10-|-------10------10------10------10-|
    G||----10-------10------10------10----|----10------10------10------10----|
    D||--0----------------0---------------|--0---------------0---------------|
    A||-----------------------------------|----------------------------------|
    E||-----------------------------------|----------------------------------|
    
    
      Dm               Dmmaj7             Dm7             Dm6
    ----------10---------------9-------|----------8---------------7-------|
    -------10-------10------10------10-|-------10------10------10------10-|
    ----10-------10------10------10----|----10------10------10------10----|
    --0----------------0---------------|--0---------------0---------------|
    -----------------------------------|----------------------------------|
    -----------------------------------|----------------------------------|
    
    
      Dm               Dmmaj7             Dm7             Dm6
    ----------10---------------9-------|----------8---------------7-------|
    
  • --|-Dm*---------------|-Dm7maj----------|-Dm7-------------|-Dm6maj----------|
    E-|----------10-------|---------9-------|---------8-------|---------7-------|
    B-|-------10-------10-|------10------10-|------10------10-|------10------10-|  Intro
    G-|----10-------10----|---10------10----|---10------10----|---10------10----|   x 2
    D-|-0-----------------|-0---------------|-0---------------|-0---------------|
    A-|-------------------|-----------------|-----------------|-----------------|
    E-|-------------------|-----------------|-----------------|-----------------|
    
    --|-Dm*---------------|-Dm7maj----------|-Dm7-------------|-Dm6maj----------|
    E-|----------10-------|---------9-------|---------8-------|---------7-------|
    B-|-------10-------10-|------10------10-|------10------10-|------10------10-|
    G-|----10-------10----|---10------10----|---10------10----|---10------10----|
    D-|-0-----------------|-0---------------|-0---------------|-0---------------|
    A-|-------------------|-----------------|-----------------|-----------------|
    E-|-------------------|-----------------|-----------------|-----------------|
    
    --|-Dm*---------------|-Dm7maj----------|-Dm7-------------|-Dm6maj----------|
    E-|----------10-------|---------9-------|---------8-------|---------7-------|
    B-|-------10-------10-|------10------10-|------10------10-|------10------10-|
    G-|----10-------10----|---10------10----|---10------10----|---10------10----|
    
  • E-|------------10---------------9----------------8---------------7-------------
    B-|---------10-------10------10------10-------10------10------10------10-------
    G-|------10-------10------10------10-------10------10------10------10----------
    D-|---0-----------------0----------------0---------------0---------------------
    A-|----------------------------------------------------------------------------
    E-|----------------------------------------------------------------------------
    
               para   que  no  las puedas  convertir en cris-
               Ojala  que  tu   nombre  se le olvide a esa
         tante   la palabra    precisa  la sonrisa per-
    
    E-|--------8------------8-----------8------------8-----------------------------
    B-|------8-----8------8-----8-----8-----8------8-----8-------------------------
    G-|----9-----9------9-----9-----9-----9------9-----9---------------------------
    D-|--------------10-----------------------10-----------------------------------
    A-|----------------------------------------------------------------------------
    E-|--8------------------------8------------------------------------------------
    
    
               Ojala que la  lluvia       deje de ser milagro que baja por tu
    
  •          Dm             Dmmaj7             Dm7              Dm6
    1|--------10------|--------9-------|--------8-------|--------7-------|e
    2|------10----10--|------10----10--|------10----10--|------10----10--|B
    3|----10----10----|----10----10----|----10----10----|----10----10----|G
    4|--0-------------|--0-------------|--0-------------|--0-------------|D
    5|----------------|----------------|----------------|----------------|A
    6|----------------|----------------|----------------|----------------|E
    
    Riff2
             C                C                C                C
    1|--------8-------|--------8-------|--------8-------|--------8-------|e
    2|------8-----8---|------8-----8---|------8-----8---|------8-----8---|B
    3|----9-----9-----|----9-----9-----|----9-----9-----|----9-----9-----|G
    4|----------------|--10------------|----------------|--10------------|D
    5|----------------|----------------|----------------|----------------|A
    6|--8-------------|----------------|--8-------------|----------------|E
    
    Riff3
            Em                Em               A                A
    1|--------7-------|--------7-------|--------5-------|--------5-------|e
    
  • +
    ¡Colabora con nosotros!
    Envíanos tu versión de esta canción
  • Tutorial
    como tocar ojala de Silvio Rodriguez
    9:36
  • Tutorial
    HD
    Ojalá Silvio Rodriguez Tablatura y partitura
    4:13

Ojalá Lyrics
Cada vez que aparece el acorde Cm tocar:
Ojala que las hojas no te toquen el cuerpo cuando caigas
para que no las puedas convertir en cristal
Ojala que la lluvia deje de ser
milagro que baja por tu por tu cuerpo
ojala que la luna pueda salir sin ti
Ojala que la tierra no te bese los pasos
Ojala se te acabe la mirada constante,
la palabra precisa la sonrisa perfecta
Ojala pase algo que te borre de pronto
una luz cegadora, un disparo de nieve,
ojala por lo menos que me lleve la muerte
para no verte tanto, para no verte siempre
en todos los segundos...en todas las visiones
Ojala que no pueda tocarte ni en canciones
Ojala que la aurora no de gritos que caigan en mi espalda
Ojala que tu nombre se le olvide esta voz
Ojala las paredes no retengan tu ruido de camino cansado
Ojala que el deseo se vaya tras de ti
a tu viejo gobierno de difuntos y flores
Ojala se te acabe la mirada constante,
la palabra precisa la sonrisa perfecta
Ojala pase algo que te borre de pronto
una luz cegadora, un disparo de nieve,
ojala por lo menos que me lleve la muerte
para no verte tanto, para no verte siempre
en todos los segundos en todas las visiones
Ojala que no pueda tocarte ni en canciones
Ojala pase algo que te borre de pronto
una luz cegadora, un disparo de nieve,
ojala por lo menos que me lleve la muerte
para no verte tanto, para no verte siempre
en todos los segundos...en todas las visiones
Ojala que no pueda tocarte ni en canciones




[Ojalá acordes][Ojalá cifra]
© LaCuerda.net · legal notice · privacy · es · en · pt · contact us
DINAMICO