Guitar Chords » S »Silvio Rodriguez » la Maza (Tab)

la Maza
Silvio Rodriguez

Lyrics, Chords & Tabs for Guitar, Bass & Ukulele

  • Am:      5xx550,   En el estribillo: x02210
    E/G#:    4xx450
    Gm6:     3xx330
    D/F#:    2xx230
    F7M:     1xx210
    C/E:     0x2010
    E7b9:    056460
    E7b9(*): 023130
    G:       320003
    F:       133211
    Dm:      xx0230
    
    
    
    
    INTRO:  | Am | E/G# | Gm6 | D/F# | F7  | C/E | D/F# | E7b9  E7b9(*) |
            | Am | E/G# | Gm6 | D/F# | F7  | C/E | D/F# | E7b9  E7b9(*) |
            | E7b9  E7b9(*) | Am | /  /  G  F | E7b9  E7b9(*) |
            | Am | % | % | % |
    
    
  •   LAm  MI/SOL#1 RE/FA#1 MI/SOL#  RE/FA#   MI  SOL   FA
    
    E--0-----0--------0-------4--------2-------0---3----1---
    B--1-----5--------3-------5--------3-------0---0----1---
    G--2-----4--------2-------4--------2-------1---0----2---
    D--2-----x--------x-------x--------x-------2---0----3---
    A--0-----x--------x-------x--------x-------2---2----3---
    E--0-----4--------2-------2--------2-------0---3----1---
    
    INTRODUCCION
    
     LAm             MI/SOL#(1)               RE/FA#(1)
    
    E------0-------------0---------------------------0-------
    B----------------------5-------3--------------3-----3----
    G----2---2--1--0---------4--------0----------------------
    D------------------------------------4--2----------------
    A--0-----------------------------------------------------
    E-----------------4---------3--------------2-------------
    
    
  •      Am          E/G#              G              D/F#
    e|-----2-----------------0--------------------------------0----------|
    b|-------------------3-----(3)---------3--------------3-----(3)------|
    g|--(2)--2-1-0-----4---4------(4)----0---0----------2---2------(2)---|
    D|-----------------------------------------4-3-----------------------|
    A|-0-----------------------------------------------------------------|
    E|---------------4-----------------3--------------2------------------|
    
      Am/F          Em                  F#      D/F#   Em
    e|-------------------1h0---------------------0----------1h0----------|
    b|-----1------------0----0---0---------3-----3----------------3------|
    g|---2-------------0-------0---------2---2---2--------0-------2------|
    D|-------3-2-0----2------------2-------------0------2----------------|
    A|-------------------------------------------x-----------------------|
    E|-1------------0-------------------2--------2-----0----------1------|
    
         Am          E/G#              G              D/F#
    e|-----2-----------------0--------------------------------0----------|
    b|-------------------3------3----------3--------------3------3-------|
    g|--(2)--2-1-0-----4---4-------4-----0---0----------2---2-------2----|
    
  •   Am7           E/G#     Gm6          D9/F#  Fmaj7
    E--5-------------4--------3------------2-----1-----------------
    A--------------------------------------------------------------
    D---------7-6-5-----------------5-4-3----------------3-2-1-----
    G----5--------------4-------3------------2------2--------------
    B----5----------------5-----3--------------3----1--------------
    e----0----------------0-----0--------------0-------------------
    
      C/E                   D/F#      E        E7(-9)
    E--0---------------------2---------0----------------
    A--------------------------------------------2------
    D----2---------------------0-----------------3------
    G------2-------------2--------2------1-------1------
    B--------0-----2-3p0----------3--------0-----3------
    e----------1p0----------------2----------1p0--------
    
      Am7           E/G#     Gm6          D9/F#  Fmaj7
    E--5-------------4--------3------------2-----1-----------------
    A--------------------------------------------------------------
    D---------7-6-5-----------------5-4-3----------------3-2-1-----
    
  •  Am               G#*         G*               F#D (suelten LA primera)
    |---0-----0------|------0----|----------------|-------------0----------|
    |-------1--------|---5-----5-|---3-----3------|-------3-----------3----|
    |-----2-----2-1--|-----------|-------0--------|---(2)---(2)---(2)---2--|
    |----------------|-----------|-----4-----4-2--|------------------------|
    |-0--------------|-----------|----------------|------------------------|
    |----------------|-4---------|-3--------------|-2----------------------|
    
    
     F                    C                     F#D             E        E7*
    |-------------------|---------1-0---------|-------------2-|---------1---|
    |-------1-----1-----|-------------1-------|-------3-----3-|-------0---3-|
    |---(2)-----2-------|-------0-------0-----|---(2)---(2)-2-|-----1-----1-|
    |---------3-----3-2-|-----2-----------2---|-------------0-|---2-------3-|
    |-------------------|---3---------------3-|---------------|-------------|
    |-1-----------------|-0-------------------|-2-------------|-0-----------|
    
    
     Am               G#*         G*               F#D (suelten LA primera)
    |---0-----0------|------0----|----------------|-------------0----------|
    
  • lam         500550          RE9/FA#  200230      RE/FA  200232
    mi/lam      400450          Fa       133211      MI     022100
    solm        300330          Do/Mi    002201      MI7    023130
    
    SOL         355433          LAm      002210      Edism  022130
    
                                      INTRO
    
             LAm           Mi/lam         SOLm       RE/FA#          FA
    
    
    E|----5------------4-------------3-------------2-----------1---------|
    A|-------------------------------------------------------------------|
    D|----------7-6-5----------------------5-4-3--------------------3-2-1|
    G|------5------------4-------4-----3--------------2---2------2-------|
    B|-------5-------------5---5--------3--------------3-3---------1-----|
    e|-----------------------0--------------------------0----------------|
    
    
            DO/MI             D/F#         MI         MI7
    
  • lam         500550          RE9/FA#  200230      RE/FA  200232
    mi/lam      400450          Fa       133211      MI     022100
    solm        300330          Do/Mi    002201      MI7    023130
    
    SOL         355433          LAm      002210
    
                                      INTRO  ***
    
             LAm           Mi/lam         SOLm       RE/FA#          FA
    
    
    E|------5--------------4-------------3-------------2-----------1---------|
    A|-----------------------------------------------------------------------|
    D|--------------7-6-5---------------------5-4-3---------------------3-2-1|
    G|---------5------------4----4--------3--------------2---2-------2-------|
    B|----------5-------------5----5-------3--------------3---3-------1------|
    e|-----------0-------------0-----0------0--------------0---0-------------|
    
    
    
    
  • +
    ¡Colabora con nosotros!
    Envíanos tu versión de esta canción
  • Tutorial
    HD
    como tocar LA MAZA de SILVIO RODRIGUEZ en guitarra
    7:06
  • Tutorial
    HD
    Acordes de la maza Silvio rodriguez
    5:34
  • Tutorial
    HD
    Como tocar La maza de Silvio Rodriguez
    18:17
  • Tutorial
    HD
    Como tocar La maza - Silvio Rodriguez HD
    3:16

la Maza Lyrics
INTRODUCCION
2x
A)Si no creyera en la locura
de la garganta del sinsonte
si no creyera que en el monte
se esconde el trino y la pavura.
A)Si no creyera en la balanza
en la razón del equilibrio
si no creyera en el delirio
si no creyera en la esperanza.
A)Si no creyera en lo que agencio
si no creyera en mi camino
si no creyera en mi sonido
si no creyera en mi silencio.
FAD SId7
B)Que cosa fuera
Que cosa fuera la maza sin cantera
un amasijo hecho de cuerdas y tendones
un revoltijo de carne con madera
un instrumento sin mejores resplandores
que lucecitas montadas para escena
que cosa fuera -corazon- que cosa fuera
que cosa fuera la maza sin cantera
un testaferro del traidor de los aplausos
un servidor de pasado en copa nueva
un eternizador de dioses del ocaso
jubilo hervido con trapo y lentejuela
que cosa fuera -corazon- que cosa fuera
que cosa fuera la maza sin cantera
que cosa fuera -corazon- que cosa fuera
que cosa fuera la maza sin cantera.
A)Si no creyera en lo mas duro
si no creyera en el deseo
si no creyera en lo que creo
si no ceyera en algo puro.
A)Si no creyera en cada herida
si no creyera en la que ronde
si no creyera en lo que esconde
hacerse hermano de la vida.
A)Si no creyera en quien me escucha
si no creeyera en lo que duele
si no creyera en lo que queda
si no creyera en lo que lucha.
B)Que cosa fuera...
NOTAS:
Los acordes MI/SOL#1 Y RE/FA#1 corresponden a los acordes
MI/SOL# Y RE/FA#, simplemente los escribo con el fin de dejar
En claro que al autor de la cancion no presiona la primera
Cuerda sino que la toca al aire.




[la Maza acordes][la Maza cifra]
© LaCuerda.net · legal notice · privacy · es · en · pt · contact us
DINAMICO