Guitar Chords » M »Mar de Copas » Un día sin sexo (Tab)

Un día sin sexo
Mar de Copas

Lyrics, Chords & Tabs for Guitar, Bass & Ukulele

  • ((((CAPO EN PRIMER TRASTE))
    \\\\\\\\\\\\\\\\\|/////////////////
    
    *Las notas que figuran entre paréntesis suenan como bajo
    y pueden representar modificaciones en el acorde previo.
    *Durante toda la canción suena un B entre el C y el Am.
    
    [Am]x4  [(E)-(C)-(A)-(C#)-Dm-Dm-G-G-C-(B)-Am-F-F]
    
    
    Am                   Dm G
    Hoy hallé entre los dos
                     C
    el pasar de una vida
    Am               Dm   G
    el pesar de mis noches
                     C
    el morir de mis días
           Am     Dm       F           C
    sin saber si aún eras mía... eras mía
    
  • Intro:  Am E C A C# Dm  G  C B Am F
    
    Am                  Dm G                  C  (C-B-A)
    Hoy halle entre los dos  el pasar de una vida
    Am                Dm   G
    el pasar de mis noches
                     C (-B-)    Am      Dm       F       C   (C-B-A)
    el morir de mis días  sin saber si aun eras mía, eras mía
    
    Am                    Dm G                  C            C-B-A)
    Hubo un tiempo en que yo  no quería dar un brazo a torcer
    Am                Dm G
    pero el alma entregue
                 C (-B-)   Am         F             E       F
    porque seas mía  sin saber que hacer con tu alegríaaaa
    
    Coro 1:
                   G             C  B/G  Am  G    F
    Y tan lejos de mi  te encontré  e    e   e
                    G                  C     B/G       Am  G    F
    
  •     Am  Dm  G   C   (C)  (B)  (Am) (G)
        6   6   4   4    9    8    6    4
        6   7   4   6    11   10   8    6
        6   8   5   6    X    X    X    X
        8   8   6   6    X    X    X    X
        8   6   6   4    X    X    X    X
        6   6   4   4    X    X    X    X
    
    
    Am (varias veces rasgueo lento)(NO TAN LENTO)
    
    Am                   Dm G
    Hoy hallé entre los dos
                     C
    el pasar de una vida
    Am               Dm   G
    el pesar de mis noches
                     C
    el morir de mis días
           Am     Dm       F           C
    
  • Ab x2...[C#](C)[Bbm]..
    F# x2
    
    Bbm                  Ebm
     Hoy halle entre los dos
    Ab               C#/[C#](C)[Bbm]
     el pasar de una vida...
                      Ebm
     el pesar de mis noches
    Ab               C#
     el morir de mis dias
            Bbm    Ebm F#         C#/[C#](C)[Bbm]
     sin saber si aun eras mia...eras mia
    
                          Ebm
     Hubo un tiempo enque yo
    Ab                        C#/[C#](C)[Bbm]
     no queria dar mi brazo a torcer
                        Ebm
     pero el alma entregue
    
  •    A5-E5-C5-A5 C#5-D5  G5 C5-B5-A5    F5
    ||---------------|----------------------------|
    ||---------------|----------------------------|
    ||-------5-----/6/-7~~~~----5--4--2~~~~-------|
    ||-7--2--5--7--/6/-7~~~~-5--5--4--2~~~~-3~~~~-|
    ||-7--2--3--7--/4/-5~~~~-5--3--2--0~~~~-3~~~~-|
    ||-5--0-----5----|-------3--------------1~~~~-|
    
    Am                   Dm  G                 C
     Hoy hallé entre los dos  el pasar de una vida
    Am                Dm    G                 C
     el pesar de mis noches  el morir de mis días
           Am     Dm     F         C
    sin saber si aún eras mía, eras mía
    Am                      Dm G                   C
     Hubo un tiempo en que yo   no quería dar un brazo a torcer
    Am                   Dm G             C
     pero el alma entregué   porque seas mía
    C/B    Am        F              E
    sin saber que hacer con tu alegríaaa ahah ahah...
    
  • En version COMPLETA (DE 6 MINUTOS), sigue el ritmo de la canción.
    
    Introducción:
    
    E -6--------6-------------4-4-4-4--------6-6-6-6-2-2-2-2- --> c. graves
    A ----8--4-----5-6-6-6-6-4--------4--3-------------------
    D -------------------------------------------------------
    G ------------------------------------------------------- --> c. agudas
    
    
    Estrofa I:
    
      Hoy halle entre los dos el pesar de una vida
    E -6-6-6-6---------4-4-4-4------------
    A ---------6-6-6-6---------4-4-4-4-3--
    D ------------------------------------
    G ------------------------------------
      el pesar de mis noches el morir de mis días sin saber si aún
    E -6-6-6-6---------4-4-4-4-------6-6-6-6------------
    A ---------6-6-6-6---------4--3---------6-6-6-6-----
    D --------------------------------------------------
    G --------------------------------------------------
      eras mia,  eras mia
    E -2-2-2-2-2-2-2-2-2------------
    A -------------------4-4-4-4-3--
    D ------------------------------
    G ------------------------------
    
    
    
  • JEJEJE  EL BAJO DEL SOUND TRACK DE LA PELICULA
    UN DÍA SIN SEXO ESTA BIEN AL 100%. MI AMIGO SLASH ESTA QUE
    LOS ESTAFA CON EL OTRO BAJO, LE FALTA AL CHIBOLO PS JEJEJE
    VA DEDICADA A MI CLAUDITA Y A MI AMEA JOSSIE JAJAA.
    
    INTRO:
    
    E --6-----6---------------4-4-4-----6-6-6-2-2-2
    A ----8-4---5-6-6-6-6--6--------4-3------------
    D ---------------------------------------------
    G ---------------------------------------------
    
      Hoy halle entre los dos el pesar de una vida
    E -6-6-6-6---------4-4-4-4-----------6...
    A ---------6-6-6-6---------4-4-4-4-3--
    D ------------------------------------
    G ------------------------------------
      El pesar de mis noches el morir de mis días sin saber si aún
    E -6-6-6-6---------4-4-4-4-----------6----------------
    A ---------6-6-6-6---------4-4-4-4-3---6-6-6-6-6-6-6-6
    D ----------------------------------------------------
    G ----------------------------------------------------
     Eras mia  eras mia
    E -2-2-2-2-2-2-2-2-2------------6...
    A -------------------4-4-4-4-3--
  • bueno aca les mando el bajo de hermosa cancionn
    como los demas estan moncess
    SACADA POR GRUPO RESISTENCIA PUENTE PIEDRA
    
    intro:
    
    G---------------------------------------------
    D---------------------------------------------
    A---------------------------------------------
    E---6--1---9---6---10---11-11-11-11--11----9--te kedas un tk ahi
    
    G-------------------------------------------
    D-------------------------------------------
    A-------------------------------------------
    E--8----6/1-------9------------------------
    
    en esta parte 6/1 jalas lento para  atras ok
    
      Hoy halle entre los dos el pesar de una vida
    E -6-6-6-6---------4-4-4-4-----------6...
    A ---------6-6-6-6---------4-4-4-4-3--
    D ------------------------------------
    G ------------------------------------
      El pesar de mis noches el morir de mis días sin saber si aún
    E -6-6-6-6---------4-4-4-4-----------6----------------
    A ---------6-6-6-6---------4-4-4-4-3---6-6-6-6-6-6-6-6
    D ----------------------------------------------------
    G 
  • +
    ¡Colabora con nosotros!
    Envíanos tu versión de esta canción
  • Tutorial
    HD
    Un día sin sexo - MAR DE COPAS (tutorial)
    3:48

Un día sin sexo Lyrics
\\\\\\\\\\\\\\\\\|/////////////////
*Las notas que figuran entre paréntesis suenan como bajo
y pueden representar modificaciones en el acorde previo.
*Durante toda la canción suena un B entre el C y el Am.
Hoy hallé entre los dos
el pasar de una vida
el pesar de mis noches
el morir de mis días
sin saber si aún eras mía... eras mía
Hubo un tiempo en que yo
no quería dar un brazo a torcer
pero el alma entregué
porque seas mía
sin saber que hacer
con tu alegríaaaaa...
Y tan lejos de mí
te encontré e e eee...
a golpe de un mirar
a punto de decir que ya no estoy aquí
Y tan cerca de mí
yo te hallé e e eee...
cuando busqué
sobre mi hombro vacío y encontré tu compañía
Cuando puede cargar tu vida sola
cuanto dura una noche cuanto pesan los días
sin saber que hacer
si son distintas... si son distintas
Hubo días en que tu
diste tu brazo a torcer
y te ahogaste en el mar
de mis recuerdos
sin saber nadaa aaaaar
Y tan lejos de tí
yo me hallé e e eee...
tan solo recordar
a pasos de tu risa y frente a tu mirar
Y tan cerca de tí
me encontré e e eee...
al preguntar si aún estaba vivo
y encontré eras mi vida




[Un día sin sexo acordes][Un día sin sexo cifra]
© LaCuerda.net · legal notice · privacy · es · en · pt · contact us
DINAMICO