Guitar Chords » M »Mar de Copas » La máquina del tiempo (Tab)

La máquina del tiempo
Mar de Copas

Lyrics, Chords & Tabs for Guitar, Bass & Ukulele

  • E-------------------------------------
    A---8--10--8--10--8--10--8--10--10--10......................P1                     
    
    E-----------------------------------------
    A---10--11--10--11--10--11--10--11--11--11..................P2
    
    E--------------------------------------------------------
    A--11--11--10--8---8--10--11--6--6--8--6--11--10--8--6--6...P3
    
    E-----------9--8
    A--6--8--6------............................................P4
    
    E-------------------
    A--10--11--10--8--10........................................P5
    
    
    
    Intro ----------> (D - G) x 2------>P1 y P2
                      (D - G) x 2------>P1 y P2  
                      (A - G - D)------>P3 y P4
    
  • D--2--4--2--4--2--4--2--4--4--4......(Punteo 1)
    D--4--5--4--5--4--5--4--5--5--.......(Punteo 2)
    D--4--5--4--2-----4-5-0-0-2-5-4-2-0..(Punteo 3)
    
    A--4--5--4--------
    E----------7--5--- (Punteo 4)
    
    D--4--5--4--2--4...(Punteo 5)
    D--4--5--4--h2.....(*) 
    
    Intro: Re - Sol [2)........(P1-P2]
           RE - SOL (2)........(P1-P2)
           LA - SOL - RE ......(P3-P4)
           
    
    
    
      LA                SOL      RE          (P4)
         Vi pasar la soledad por mi calle
      LA                SOL        RE        (P5)
    
  • INTRO: LA SOL LA SOL 
    
    E|-----------------------------------------------------------------------
    B|----------------------------------------------------------------------- 
    G|-----------------------------------------------------------------------
    D|----2-4-2-4-2-4-2-4-4-5-4-5-4-5-4-5-4-5-4-2--2--2-4-5----2-4-5-4-2-0--- 
    A|------------------------------------------------------5---------------- 
    E|-----------------------------------------------------------------------
    
    E|-------------------- 
    B|-------------------- 
    G|--------------------
    D|-------------------- 
    A|----4-5-4-2-0------- 
    E|--------------------
    
     LA          SOL     RE
    VI PASAR LA SOLEDAD POR MI CALLE
     LA           SOL      RE
    VI CRUZAR SU MULTITUD SIN MIRARME
    
  •  D - G (x2)  G   ...arpegiar en los acordes
    
    
        Dsus2-D             G                      Dsus2-D             G                    A
    e ------------------------------------------------------------------------------------------
    b ------------------------------------------------------------------------------------------
    g ------------------------------------------------------------------------------------------
    d --2-4-2-4-2-4-2-4-2----4-5-4-5-4-5-4-5-4-----2-4-2-4-2-4-2-4-2---4-5-4-5-4-5--4h(5)-4-2---
    a ------------------------------------------------------------------------------------------
    e ------------------------------------------------------------------------------------------
    
           G        D                              A
    e ------------------------------------------------
    b ------------------------------------------------
    g ------------------------------------------------
    d -2-4-0--0-0--4h(5)-4-2--------------------------
    a -----------------------5-(5)---4h(5)p(4)-4------
    e -------------------------------------------7-5--
    
    
    
  • +
    ¡Colabora con nosotros!
    Envíanos tu versión de esta canción

La máquina del tiempo Lyrics
Vi pasar la soledad por mi calle
vi cruzar su multitud sin mirarme
claramente pude ver que no había tristeza ahí
tampoco escuché reír, sólo vivía y se dejaba vivir

vi también la suavidad de un romance
dulcemente en su especie prolongarse
quise mis ojos cerrar y a mis sueños echar a andar
sólo dar un paso atrás y seguir con mi viaje


en mi máquina del tiempo sin hallar claridad
vi pasar mi vida así, en un instante
a quien amé pude odiar, sin importarme
simplemente comprendí que es mejor callado vivir
y seguir mi viaje así, sin pensar en hallar tu gran
claridad
en mi máquina del tiempo sin parar
en mi máquina del tiempo sin hallar claridad
claridad




[La máquina del tiempo acordes][La máquina del tiempo cifra]
© LaCuerda.net · legal notice · privacy · es · en · pt · contact us
DINAMICO