Guitar Chords » M »Mar de Copas » Entre los Arboles (Tab)

Entre los Arboles
Mar de Copas

Lyrics, Chords & Tabs for Guitar, Bass & Ukulele

  • 1)C                                    F
      Por no dejar correr un par de viejas lágrimas
                     G                      C
    por ignorar a un ángel que frente a mi paso
    Am               A              F
    de pronto te vi andar entre los árboles
    E                          Am
    un hechizo me hirió en el corazón.
    
    1)Por no dejar pasar la flecha que al azar voló
    
    por olvidar la magia que un alma en pena me enseño
    
    de pronto te vi andar entre los árboles
    
    al vestirse de rosa me encontró.
    
          C-Am-F-G
    
    
    
  • Intro: C9 - Am7 - F - G
     
    
     Por no dejar correr un par de viejas lágrimas por ignorara a un ángel que frente a mí pasó
    C                                      F                          G          F           C
     de pronto te vi andar entre los árboles un hechizo me hirió en el corazón
    Am                   G           Dm   E                     Dsus2        Am
     Por no dejar pasar la flecha que al azar voló por olvidar la magia que un alma en pena me enseñó
    C                                    F                           G         F             C
     de pronto te vi andar entre los árboles al vestirse de rosa me encontró
    Am                 G             Dm   E                 Dsus2         Am
     
     Instrumental: C9 - Am7 - F - G
    
     Por merodear entre la suerte y el lamento el juego de las hadas y el embrujo del viento
    C                                     F                      G         F           C
     y siemnpre te vi andar entre los árboles una vez más el juego terminó
    Am                 G              Dm   E                   Dsus2    Am
     
     Coro:
    
  •   C                           C
    e|-----------------------|-----------------------|
    B|--1--------3------3----|--1--------3------3----|
    G|-----0-------0------0--|-----0-------0------0--|
    D|-------2-------2-------|-------2-------2-------|
    A|--3--------3------3----|--3--------3------3----|
    E|-----------------------|-----------------------|
    
      Am                       Am
    e|-----------------------|-----------------------|
    B|--1--------3------3----|--1--------3------3----|
    G|-----2-------2------2--|-----2-------2------2--|
    D|-------2-------2-------|-------2-------2-------|
    A|--0--------0------0----|--0--------0------0----|
    E|-----------------------|-----------------------|
    
      F                                      G      
    e|-------1-----1-3----1--------|-------3------3--5------3---------|
    B|-1-------1-------1----1---1--|-3--------3--------3------3---3---|
    G|---2-------2-------2----2---2|---4--------4--------4------4---4-|
    
  • G  355433
    G7 353433
    G1 320003
    C1 x35553
    E7 022130
    
    INTRO:
    
      C                        Am7
    |--------------------------|--------------------------------|
    |-1---1---1---3---3---3----|---1---1---1---3---3---3--------|
    |--0---0---0---0---0---0---|----0---0---0---0---0---0-------|
    |---2---2---2---2---2---2--|-----2---2---2---2---2---2------|
    |-3------------------------|---0----------------------------|
    |--------------------------|--------------------------------|
    
      F                           G
    |--------------------3----------|--------------------5---------------|
    |--------1---1---1------1---1---|-----3---3---3--------3--3----------|
    |---------2----2---2---2-2------|------4----4--4--4------4-4---------|
    
  • Si alguien tiene más punteos de Mar de Copas o algun comentario 
    mande un mail a: danielalonso26@hotmail.com
    
    Primero arpegiando C - Am - F - G 
    
    E ------------------1---3-1-0-1-0-1-3--5-3-1-0-
    B -1-1-3-5-1--1-3-5----------------------------
    G ---------------------------------------------
    D ---------------------------------------------
    A ---------------------------------------------
    E ---------------------------------------------
    
    E -------------------------------------1--3---------------
    B -1-0---1--1-0---1--1-0---1--1-0---1--1--3---------------
    G -----0--------0--------2--------2----2--0---------------
    D -------------------------------------3--0---------------
    A -------------------------------------3--2---------------
    E -------------------------------------1--3---------------(x2)
    Ojo: despues de las dos primeras estrofas se puntea un sola vez
    
    Solo
    
    E ------------------------------------------------------
    B -----------------------------------------------------
  • (LA posicion de C)
    
    |-0---0---0---0--|  
    |--1---1---1---1-|
    |---0---0---0---0|    No estoy seguro cuantas veces son 
    |----------------|    en cada posición
    |----------------|
    |----------------|
    
    (despues pasa a:
    LA posición Am)
    
    |-0---0---0---0--|  
    |--1---1---1---1-|
    |---2---2---2---2|
    |----------------|
    |----------------|
    |----------------|
     
    (luego
    
  • +
    ¡Colabora con nosotros!
    Envíanos tu versión de esta canción
  • Tutorial
    HD
    Entre los árboles - MAR DE COPAS (tutorial)
    4:15

Entre los Arboles Lyrics
Por no dejar correr un par de viejas lágrimas
por ignorar a un ángel que frente a mi paso
de pronto te vi andar entre los árboles
un hechizo me hirió en el corazón.
1)Por no dejar pasar la flecha que al azar voló
por olvidar la magia que un alma en pena me enseño
de pronto te vi andar entre los árboles
al vestirse de rosa me encontró.
1)Por merodear entre la suerte y el lamento
el juego de las hadas y el embrujo del viento
y siempre te vi andar entre los árboles
una vez mas el juego termino.
2)Despierta en vuelo, princesa de sueños, ante esta guerra de
honor
la pócima es el guardián de tu prisión contra mis besos de amor
eres la bruja del mal mas linda tierna del espejo hablador
y has de saber que a tu conjuro respondo con una flor.
1)Por no dar media vuelta cuando un duende te cruzo
por no saber a donde, te internaste en el bosque
y siempre te vi andar entre los árboles
y tu rubor prendió en mi corazón
y por creer en cuentos de hadas, tu soledad termino.
2)CORO




[Entre los Arboles acordes][Entre los Arboles cifra]
© LaCuerda.net · legal notice · privacy · es · en · pt · contact us
DINAMICO