Guitar Chords » M »Mar de Copas » Prendí otro fuego por ella (Tab)

Prendí otro fuego por ella
Mar de Copas

Lyrics, Chords & Tabs for Guitar, Bass & Ukulele

  • A-Asus4-A
    
                     E
    1)Buscaré en las sombras
                  A
    reconozco una igual a ti
                E                     A
    cazaré una pájara y le cortaré la alas
    
    por no volar.
    
                       D
    2)Y si estuviéramos dos
                  A
    no te estaría buscando en la ciudad
                     E
    y en cada templo donde vuelvo a pisar
                          A      A-Asus4-A
    prendí otro fuego por ella.
    
    
  •   E                   A
    
    e --------------------5---5---5---5-
    b ---9---9---9---9--5---5---5---5---
    g -9---9---9---9--------------------
    d ----------------------------------
    a ----------------------------------
    e ----------------------------------
    
    
    INTRO :
    
    A-Aadd9-A
    
                    E                         A
    Buscaré en las sombras...reconozco una igual a ti
    
                E                     A                A7
    cazaré una pájara y le cortaré la alas por no volar.
    
    
  • Este es el Solo de la cancion de MDC (prendi otro fuego), tal ves hay algunos 
    partes que omiti por ahi pero la mayoria esta bien espero que lo puedan sacar
    
    e -----------------------------------------
    B --2---------------------------------2-2--
    G ----2-2-2-2-2s3-2-2-2-2-----2-2-4s6------
    D ------------------------4-2--------------
    A -----------------------------------------
    E -----------------------------------------
    
    e -----------------------------------------
    B -2-2-2h3-3-3-3---------------------------
    G ---------------4-2-------2-2-6-6-4-2-----
    D -------------------2-2h4-----------------
    A -----------------------------------------
    E -----------------------------------------
    
    
    Si tienes alguna duda no duden en escribirme ...
  • +
    ¡Colabora con nosotros!
    Envíanos tu versión de esta canción
  • Tutorial
    HD
    Prendí otro fuego por ella - MAR DE COPAS (tutorial pt1)
    3:31

Prendí otro fuego por ella Lyrics
1)Buscaré en las sombras
reconozco una igual a ti
cazaré una pájara y le cortaré la alas
por no volar.
2)Y si estuviéramos dos
no te estaría buscando en la ciudad
y en cada templo donde vuelvo a pisar
prendí otro fuego por ella.
1)Cambiaré un amor
por flores frescas de la noche
huiré del sol de tu prisión
en busca de un astro rey.
2)
3)No se bien ya que pensar
que daría por llorar por tu ausencia.
4)
Prendí otro fuego por ella
Prendí otro fuego por ella
Prendí otro fuego por ella
(dije esta frase mil veces y una mas)
4)prendí otro fuego por ella...




[Prendí otro fuego por ella acordes][Prendí otro fuego por ella cifra]
© LaCuerda.net · legal notice · privacy · es · en · pt · contact us
DINAMICO