Guitar Chords » G »Gustavo Cerati » Vivo (Tab)

Vivo
Gustavo Cerati

Lyrics, Chords & Tabs for Guitar, Bass & Ukulele

  •   Em   Arr.*       D     A   C   G   Cmaj7
    1-7----7----------10-----0---0---3---0
    2-8----7----------10-----2---1---3---0
    3-9----7----------11-----2---0---0---0
    4-9----7----------12-----2---2---0---2
    5-7----7----------12-----0---3---2---3
    6-x----x----------10-----x---x---3---x
    
    Intro x4:
    
    1-10-8-7----------7-
    2-------8------10---
    3--------9--9-------
    4-------------------
    5-------------------
    6-------------------
    
    Versos
    Em, Arr.* slide D, C (se rasguea el Em, se deja solo el arreglo
    de la cejilla en el 7o espacio, se rasguea y se
    
  •   Em  D   Dx  Cx   A   C   G
    1-7---5---10---8---0---0---3
    2-8---7---10---8---2---1---3
    3-9---7---11---9---2---0---0
    4-9---7---12---10--2---2---0
    5-7---5---12---10--0---3---2
    6-x---x---10---8---x---x---3
    
    Intro:
    
    1-10-8-7-----------7
    2-------8------8-10-
    3--------9----------
    4-------------------
    5-------------------
    6-------------------
    
    Versos
    Em, D, Dx, C
    
    
  •   Em   Arr.*   D     A   C   G   Cmaj7
    1-7----7----------10-----0---0---3---0
    2-8----7----------10-----2---1---3---0
    3-9----7----------11-----2---0---0---0
    4-9----7----------12-----2---2---0---2
    5-7----7----------12-----0---3---2---3
    6-x----x----------10-----x---x---3---x
    
    Intro x4: (con delay)
    
    1-10-8-7----7-------7--------------7-----------7--------------
    2----------8-----8-------------10-----------10---------10-----
    3------------9------9-------9------------9-----------9----------
    4-------------------------------------------------------------------
    5-------------------------------------------------------------------
    6-------------------------------------------------------------------
    
    Versos
    Em, Arr.* slide D, C(se rasguea el Em se deja solo el arreglo
    de la cejilla en el 7o espacio, se rasguea y se
    
  •   Em   Arr.*       D     A   C   G   Cmaj7
    1-7----7----------10-----0---0---3---0
    2-8----7----------10-----2---1---3---0
    3-9----7----------11-----2---0---0---0
    4-9----7----------12-----2---2---0---2
    5-7----7----------12-----0---3---2---3
    6-x----x----------10-----x---x---3---x
    
    Intro x4:
    
    1-10-8-7---------7--
    2-------8---8-10--8-
    3--------9---------9
    
    Versos
    Em - Arr.* - D - C
    (Movimiento rápido, de Arr.* se desliza a D y
    regresar a C normal con arpegio)
    
    riff (con delay)
    
  • +
    ¡Colabora con nosotros!
    Envíanos tu versión de esta canción
  • Tutorial
    Vivo (acordes)
    - Gustavo Cerati.
    4:22
  • Tutorial
    HD
    Explicado - Como tocar "Vivo" de Gustavo Cerati en el bajo tutorial#261
    10:49

Vivo Lyrics
Versos
Em, Arr.* slide D, C (se rasguea el Em, se deja solo el arreglo
de la cejilla en el 7o espacio, se rasguea y se
hace un slide a D y el C normal se puntea).
Precoro:
Me pondre el uniforme
De piel humana
No esperaba
Tanto resplandor
El fin de amar
es sentirse más vivo
El fin del mar
sentirse igual vivo
riff:
Precoro(con figura de intro)
Acaba con acordes de versos e Intro.
Como bonus les daré 3 arreglos que hace con G y A en una par
de secciones hacia el final del tema:
Jejeje... Esos arreglos fíjense como suenan y vean dónde
encajarlos.




[Vivo acordes][Vivo cifra]
© LaCuerda.net · legal notice · privacy · es · en · pt · contact us
DINAMICO