Guitar Chords » G »Gustavo Cerati » Puente (Tab)

Puente
Gustavo Cerati

Lyrics, Chords & Tabs for Guitar, Bass & Ukulele

  • Intro:[D-Am7-C-] X4
    
    D            D2  Am7 G/B  C    D
    Hoy te busqué en la rima que duerme
        D2        Am7   G/B  C
    con todas las palabras.
    D        D2   Am7 G/B   C       D
    Si algo callé es porque entendí todo
    D2    Am7 G/B       C
    menos la distancia.
    Em     C9 D D2   F
    Desordené átomos tuyos
        C9        D
    par hacerte aparecer
     G      Bm7 G      A
    (un día más ,un día más...)
    D         D2  Am7   G/B   C    D
    Arriba el sol abajo el reflejo
    D2      Am7 G/B  C
    de cómo estalla mi alma
    
  • Intro: D - Am7 - C (x4)
    
    D
    Hoy te busqué
       Am7      C          D
    En la rima que duerme
                     Am7   C
    Con todas las palabras
    D
    Si algo callé
        Am7         C       D
    Es porque entendí todo
                Am7    C
    Menos la distancia
    
    Em      C
    Desordené
    Bm7     A#           A
    Atomos tuyos para hacerte
          D    C
    
  • Caad9  A7sus4 A#sus2   A     D      G      Em    Em7    Bm7   E/G#    G/F#
    E/-3-  E/-0-  E/-1-  E/-0-  E/-2-  E/-3-  E/-0-  E/-3-  E/-2  E/-4-  E/-3-
    B/-3-  B/-3-  B/-1-  B/-2-  B/-3-  B/-3-  B/-0-  B/-3-  B/-3  B/-5-  B/-3-
    G/-0-  G/-0-  G/-3-  G/-2-  G/-2-  G/-0-  G/-0-  G/-0-  G/-2  G/-4-  G/-0-
    D/-2-  D/-2-  D/-3-  D/-2-  D/-0-  D/-0-  D/-2-  D/-2-  D/-4  D/-6-  D/-0-
    A/-3-  A/-0-  A/-1-  A/-0-  A/-X-  A/-2-  A/-2-  A/-2-  A/-2  A/-7-  A/-0-
    E/-X-  E/-X-  E/-X-  E/-X-  E/-X-  E/-3-  E/-0-  E/-0-  E/-X  E/-X-  E/-2-
    
    Intro:(Durante todo el verso se puede realizar este arpegio)
            D          D           D
    e/-------------------------------------------
    B/--------3----------3-----------3-----------
    G/-----2-----2----------2------------2-------
    D/---0----------0----------0------------0----
    A/-------------------------------------------
    E/-------------------------------------------
                     A7sus4                           Caad9
    e/-------------------------------------------------------------
    B/-----------------3----------------------------3--------------
    G/-------------0-------0---------------------0-----0-----------
    
  • INTRO: F - Cm - D#
    
     F               Cm      D#         F
    Hoy te busque en la rima que duerme-e
                    Cm       D#
    Con todas las palabraaaaaas
     F               Cm          D#      F
    Si algo calle es porque entendi todo-o
                Cm       D#
    Menos la distanciaaaaaa
    
    Bb     D#
    Desordene
    Dm*    C#          C9          F  D#
    Atomos tuyos para hacerte aparece--er
    
    Bb     Bb/A   Bb/G    C9
    Un dia mas,    un dia mas...
    
     F            Cm       D#      F
    
  •         D          D           D
    -------------------------------------------
    --------3----------3-----------3-----------
    -----2-----2----------2------------2-------
    ---0----------0----------0------------0----
    -------------------------------------------
    -------------------------------------------
                    Am7                           C9
    -------------------------------------------------------------
    -----------------3----------------------------3--------------
    -------------0-------0---------------------0-----0-----------
    --------2-------------------------------2----------2---------
    ----0--------------------0-2-3-------------------------------
    -------------------------------------------------------------
    
    D            D2  Am7      C          D
    Hoy te busqué en la rima que duerme
        D2        Am7        C
    con todas las palabras.
    D        D2   Am7       C            D
    
  • Intro(x4): FA DOm RE#
    
    FA               DOm     RE#        FA
    Hoy te busqué en la rima que duerme
                     DOm    RE#
    con todas las palabras.
    FA               DOm          RE#    FA
    Si algo callé es porque entendí todo
                 DOm    RE#
    menos la distancia.
    SOLm   RE# REm    DO#
    Desordené  átomos tuyos
          DO         FA  RE#
    par hacerte aparecer
    LA#      LA#/LA   LA#/SOL  DO
    (un día más,      un día   más...)
    FA            DOm      RE#        FA
    Arriba el sol abajo el reflejo
       REm            DOm      RE#
    de cómo estalla mi alma
    
  • Intro
    G|-----------------|-----------------|-----------------|-----------------|
    D|-3~----------0h1~|-3~----------0h1~|-3~----------0h1~|-3~----------0h1~|
    A|---------3~------|---------3~------|---------3~------|---------3~------|
    E|-----------------|-----------------|-----------------|-----------------|
    
    Verse
    G|-----------------|-----------------|-----------------|-----------------|
    D|-3~----------0h1~|-3~----------0h1~|-3~----------0h1~|-3~----------0h1~|
    A|---------3~------|---------3~-----3|---------3~------|---------3~------|
    E|-----------------|-----------------|-----------------|-----------------|
    
    G|-----------------|---------------0-|-----------------|
    D|-----1~--0~------|---------3~--1---|-----------------|
    A|-------------4~--|-3~--------------|-1~------0~--3~--|
    E|-3~--------------|-----------------|-----3~----------|
    
    G|-----------------|-----------------|-----------------|-----------------|
    D|-3~----------0h1~|-3~--0~------0h1~|-3~----------0h1~|-3~--0~------0h1~|
    A|-----
  • F                 Cm     Eb         F
    Hoy te busqué en la rima que duerme
                      Cm     Eb  F
    con todas las palabras
    F                 Cm         Eb      F
    si algo callé es porque entendí todo
                 Cm    Eb
    menos la distancia
     Gm     Eb  Eb11(sin7)  Dm     Db
    desordené               átomos tuyos
           Cm          F    Eb-Eb/G
    para hacerte aparecer
    Bb      Dm/A  Gm7    C
    (un día más, un día más...)
    F                Cm     Eb      F
    arriba el sol abajo el reflejo
       F/D            Cm  Eb
    de cómo estalla mi alma
    F              Cm       Eb        F
    ya estás aqui y el paso que dimos
    F/D             Cm   Eb
    es causa y es efecto
     Gm     Eb  Eb11(sin7)  Dm      Bm7b5
    cruza el amor            yo cruzaré los dedos
      F  Bb   Gm7 Bb   F   Bb Gm7 Bb
    y gracias por ve---nir
    F    Bb  Gm7 Bb   G7
    gracias por  ve---nir
    
    C - Dm - Bb
    
    C  Dm    Bb     C
    adorable puente
             Dm     Bb      F
    se ha creado entre los dos.
    
    F Cm Eb ...
    
     Gm     Eb  Eb11(sin7)
    cruza el amor
    Dm
  • +
    ¡Colabora con nosotros!
    Envíanos tu versión de esta canción
  • Tutorial
    HD
    Como tocar Puente (Gustavo Cerati)
    30:36
  • Tutorial
    HD
    Explicado! Como tocar "Puente" de Gustavo Cerati en el bajo tutorial#71
    8:49

Puente Lyrics
Hoy te busqué en la rima que duerme
con todas las palabras.
Si algo callé es porque entendí todo
menos la distancia.
Desordené átomos tuyos
par hacerte aparecer
(un día más ,un día más...)
Arriba el sol abajo el reflejo
de cómo estalla mi alma
Ya estás aquí y el paso que dimos
es causa y es efecto
Cruza el amor yo cruzaré los dedos
Y gracias por venir
gracias por venir
Adorable puente
se ha creado entre los dos.
(Esta parte háganla como punteo y los acordes
háganlo rasgueando y va a sonar parecido.)
Cruza el amor
yo cruzaré los dedos
gracias por venir
gracias por venir
Adorable puente...
Cruza el amor
cruza el amor por el puente
Usa el amor, usa el amor como un puente.
Comentarios, quejas, denuncias, insultos, citas, etc, dejo mi mail
pepowin_577@hotmail.com




[Puente acordes][Puente cifra]
© LaCuerda.net · legal notice · privacy · es · en · pt · contact us
DINAMICO