Guitar Chords » G »Gustavo Cerati » Me quedo aquí (Tab)

Me quedo aquí
Gustavo Cerati

Lyrics, Chords & Tabs for Guitar, Bass & Ukulele

  • C       Cadd9
    
    E: 3    E: 3
    B: 1    B: 3
    G: 0    G: 5
    D: 2    D: 5
    A: 3    A: 3
    E: X    E: X
    
    ME QUEDO  AQUI
    
    D         F#m
        Espera
    C           Bm
        no te enojes esta vez
    D       F#m
        lo vi venir
    C           Em
        como siempre la reacción
    A   Bm       G      C     Bm
    
  • | D       | [xx0232] |
    | F#m     | [244222] |
    | C       | [x32010] |
    | Em      | [022000] |
    | A       | [x02220] |
    | Bm      | [x24432] |
    | G       | [320033] |
    | Gm      | [355333] |
    | C*      | [x35553] |
    | F       | [133211] |
    | Am      | [x02210] |
    | C7      | [x32310] |
    | D*      | [x57775] |
    +---------+----------+
    
    
    D         F#m
        Espera
    C           Em
        no te enojes esta vez
    
  • D
    F#m    C
    Espera
    Bm                        D
    no te enojes esta vez
    F#m    C
    lo vi venir
          Em                  A
    como siempre la reacción
    Bm     G     C      Bm    A
    es tan lenta como mi voz
    Bm     G     Em     A     A
    arrasando con la razón
    Bm     Em    C      G      Gm
    el tsunami llegó hasta aquí
                 D
    lo vi venir
    
    F#m    C
    Bm                        D
    
  • e|---------------------------------------------------------------|
    B|--------------------12-12s13-13-12-----------------------------|
    G|-11~--11-12-14~--14----------------14--14s16-16-14-12-11~------|
    D|---------------------------------------------------------------|
    A|---------------------------------------------------------------|
    E|---------------------------------------------------------------|
    
    e|---------------------------------------------------------------|
    B|-----------------------------------10--------------------------|
    G|---------------------7-9-11s9-7-9b----r9-7-(9)-----------------|
    D|-14-12-11~--9-7--7s9-------------------------------------------|
    A|---------------------------------------------------------------|
    E|---------------------------------------------------------------|
    
    e|---------------------------------------------------------------|
    B|------15~----15-----------12s14----15-14---12------------------|
    G|--s14-----14----14-----14-------14------14----14---------------|
    D|-------------------12------------------------------------------|
    A|---------------------------------------------------------------|
    E|---------------------------------------------------------------|
    
  • +
    ¡Colabora con nosotros!
    Envíanos tu versión de esta canción
  • Tutorial
    Me Quedo Aquí (acordes)
    - Gustavo Cerati.
    3:38

Me quedo aquí Lyrics
Espera
no te enojes esta vez
lo vi venir
como siempre la reacción
es tan lenta como mi voz
arrasando con la razón
el tsunami llegó hasta aquí
lo vi venir
Si aprendemos la lección
sabrás que al fin
el misterio es contradicción
con todo aquello que conoces
a veces hago todo al revés
el tsunami llegó hasta aquí
lo vi venir
Todo se movió
y es mejor quedarse quieto
pronto saldrá el sol
y algún daño repondremos
terco como soy
me quedo aquí
La tinta no seco
y en palabras dije muchas cosas
pero en mi corazón
todavía queda tanto por decir
tanto por decir
tanto por decir
no me voy...
me quedó aquí
Riff:(guitarra Cerati)
GI-7-7-7-7-7-7-7-6-6-7-6/2-2-2/9-9-9-9-9-9-9-9-7-7-9-7/4-4-4/11-11-11-11--
GI-11-11-11-11-12-12/14-14-14-14-14-14-14-14/16-16-16/17-17-17-17-17-17/16-
GI-16-16-16/14-14-14-14/16-16-16-16/14-14-14-14/12-12-12-12/-I x2
Y si no,
no aprendimos la lección
Y si no,
no aprendimos la lección
***************************************************************************
nico.stereo (nico-stereo@hotmail.com)




[Me quedo aquí acordes][Me quedo aquí cifra]
© LaCuerda.net · legal notice · privacy · es · en · pt · contact us
DINAMICO