Guitar Chords » C »Caifanes » Viento (Tab)

Viento
Caifanes

Lyrics, Chords & Tabs for Guitar, Bass & Ukulele

  •    D                    Bm            G - A   
     Prestame tu peine, y peiname el alma.
      D             Bm           G   A      
     Desenredame, fuera de este mundo.
      D                    Bm    G   A    
     Dime que no estoy, so~andote.
    D           Bm             G    A 
     Ense~ame, de que estamos hechos.
    
    
    F#m
     Que quiero habitar planetas, 
         G
     hasta ver uno vacio,
    F#m
     que quiero irme a vivir, 
      G               A
     pero que sea contigo.
    
     
    
  •    D
    Prestame tu peine
        Bm                   G    A
    y peiname el alma
        D   
    desenredame
        Bm                     G   A
    fuera de este mundo
    
        D
    Di me que no
         Bm       G    A
    estoy so¤andote
       D
    ense¤ame  
    Bm            G       A
    de que estamos hechos.
    
    F#m
    Que quiero brincar planetas
    
  • Intro:
     
    Riff 1
    	|-------------------------|----------------------|
    	|-------------------------|----------------------|
    	|-------------------------|----------------------|
    	|-12-12-12-12-12-12-12-12-|-12-12-12-12-12-12-12-|
    	|-------------------------|----------------------|
    	|-------------------------|----------------------|
    
    
    	|-----------------|-------------------------|
    	|-----------------|-------------------------|
    	|-----------------|-------------------------|
    	|-9-9-9-9-9-9-9-9-|-10-10-10-10-10-10-10-10-|
    	|-----------------|-------------------------|
    	|-----------------|-------------------------|
    
       C/Riff 1
    	|-----------------|-------------------15----|
    	|-----------------|-15----------------------|
    	|-----------------|----------------------16-|
    	|-0---------(0)---|-------------------------|
    	|--\-------/------|-------------------------|
    	|---\ 1/2 /-------|-------------------------|
    
    Verso:
    	   v v v ^ ^   v v v ^  ^         v v v ^ ^ v v v ^ ^ 
    	
  • Intro:
     
    Riff 1
          |-------------------------|----------------------|
          |-------------------------|----------------------|
          |-------------------------|----------------------|
          |-12-12-12-12-12-12-12-12-|-12-12-12-12-12-12-12-|
          |-------------------------|----------------------|
          |-------------------------|----------------------|
    
    
       |-----------------|-------------------------|
       |-----------------|-------------------------|
       |-----------------|-------------------------|
       |-9-9-9-9-9-9-9-9-|-10-10-10-10-10-10-10-10-|
       |-----------------|-------------------------|
       |-----------------|-------------------------|
    
       C/Riff 1
       |-----------------|-------------------15----|
       |-----------------|-15----------------------|
       |-----------------|----------------------16-|
       |-0---------(0)---|-------------------------|
       |--\-------/------|-------------------------|
       |---\ 1/2 /-------|-------------------------|
    
    Verso:
        
  •         F#m      D        G        A        Bm  
           -----    -----    -----      -----    -----    
          |--2--|  |--0--|  |--3--|  |--0--|  |--x--|  
          |--2--|  |--0--|  |--2--|  |--0--|  |--3--|  
          |--2--|  |--0--|  |--0--|  |--2--|  |--4--|  
          |--4--|  |--3--|  |--0--|  |--2--|  |--4--|  
          |--4--|  |--2--|  |--0--|  |--2--|  |--2--|  
          |--2--|  |--3--|  |--3--|  |--0--|  |--x--|  
    
    
    
    (intro)
    guitar 1
     
          (play it as fast as 
    you can)  
    B-----3-3-3-3-3-3-3-3-3-3-3-3-3---0-0-0-0-0-0-0---1-1-1-1-1-1-----3-3-3-3-3-3-
    
    guitar 2  (guitar 1 is played one more time)
    
    
  • Esta es la versión sin púa con púa las solas van dobles
    
    |----------------------------------------------------------------|
    |----------------------------------------------------------------|
    |----------------------------------------------------------------|
    |----4-------4------4------4-------4------4----------------------|
    |-5-5-5---7-7-7--5-5-5--7-5-5---2-2-2--2-2-2------5------7-------|
    |----------------------------------------------3-3-3--5-5-5------|
    
    
    |----------------------------------------------------------------|
    |----------------------------------------------------------------|
    |----------------------------------------------------------------|
    |----4-------4------4------4-------4------4----------------------|
    |-5-5-5---7-7-7--5-5-5--7-5-5---2-2-2--2-2-2------5------7-------|
    |----------------------------------------------3-3-3--5-5-5------|
    
    
    |----------------------------------------------------------------|
    |----------------------------------------------------------------
  • Aqui esta el tab correcto de bajo, esto es todo lo que tienen
    que tocar, eactamente igual.  100% correcto
    CAIFANES--VIENTO (Bassline)
    
    
    Gtr I (E A D G) - 'Bajo'
    
      Q=126
     4/4
      Gtr I
      W          W          W          W
    |----------|----------|----------|------|
    |----------|----------|----------|------|
    |----------|----------|----------|------|
    |----------|----------|----------|------|
    
    
      W          W          W          W
    |----------|----------|----------|------|
    |----------|----------|----------|------|
    |----------|----------|----------|------|
    |----------|----------|----------|------|
    
    
      Q  Q  H      +E  E +S  E. Q  Q    E E +Q   H      E E +Q   H
    |------------|-----------------2--|---------------|---------------|
    |-0--0--0----|-(0)-0-(0)-2--4-----|---------------|---------------|
    |------------|--------------------|-2-2-(2)--2----|----------0----|
    |------------|--------------------|---------------|-3-3-(3)-------|
    
    
      Q  Q  H      +E  E +S  E. Q  Q   
  • La Bateria comiensa con platillos perdidos es decir trata de
    matizar tus platillos con el arreglo de la guitarra contando
    7 tiempos a 4 cuartos.
    
    s-Tarola
    b-Bombo
    t-Tom    1(izquierdo)2(derecho)g(Goliat ó tom de piso)
    c-Contratiempos (depende de la simbologia):
    x- contra cerrado
    X- contra abierto
    k- Crash
    
    ***************intro***************
    c|- - - - - - - -| contras con campaneos
      1 y 2 y 3 y 4 y    7 veces
    
    sube de intensidad
    S|x-x-x-x-x-x-x-x-x-x-x-x-x-x-x-x| primer remate tarola a 16avos
      1   y   2   y   3   y   4   y
    **********************************
    ***********ritmo base*************
    C|K x x x x x x x x x x x x x x x| contra a 16avos
    S|- - - - o - - - - - - - o - - -| 3veces
    T|- - - - - - - - - - - - - - - -|
    B|o – o - - - o - o - - - - - - -|
      1   y   2   y   3   y   4   y
    
    C|K x x x x x x x x x x x x x x X|
    S|- - - - o - - - - - - - o o - -|
    T|- - - - - - - - - - - - - - - -|
    B|o – o - - - o - o - - - - - - -|
      1   y   2   y   3   y   4   y
    
    C|K x x x x x x x x x x x x
  • Intro
    
    Re X 10           Si X 5           Do X 5
    
    
    Re fa# re mi fa# mi re  fa#  re mi fa# mi  
    
    Fa# mi si fa# si si fa# sol re sol la mi
    
    Re
    Prestame tu peine
    Fa# fa# mi fa# re re
    
    Sim	Sol-La
    Peiname el alma
    Re fa# si si si si
    
    Re
    Desenredame
    Fa# fa# mi fa# mi 
    
    Sim	Sol-La
    Fuera de este mundo
    Fa# fa#  sol la sol la
    
    Re
    Dime que no estoy
    Fa# fa# mi re fa# re
    
    Sim               Sol-La
    Soñandote
    Mi fa# si si
    
    Re
    Enseñame
    Fa# mi re fa#
    
    Sim	Sol-La
    De que estamos hechos
    Fa# fa# sol la sol la#
    
    Fa#
    Que quiero brincar planetas
    Si si si si  do si sol sol
    
    Sol	La
    Hasta ver uno vacio
    Si do si sol sol si do do 
    
    Sim
    Que quiero irme a vivir
    Si si si do re sol
    
    Sol                La
    Pero que sea contigo
    Do do si sol si do si
    
    Re
    Viento
    Fa# fa#
    
    Sim	Sol-La
    Amarranos
    Fa# fa# re re	X 2
    
    Re
    Tiempo
    Fa# fa#
    
    Sim	Sol-La
    Detente muchos años
    Fa# fa# mi re mi re do#
    
    
    Re
    Prestame tu peine
    Fa# fa# mi fa# re re
    
    Sim	Sol-La
    Peinam
  • +
    ¡Colabora con nosotros!
    Envíanos tu versión de esta canción
  • Tutorial
    HD
    Como Tocar Viento - Caifanes [Tutorial Guitarra]
    5:38

Viento Lyrics
Prestame tu peine, y peiname el alma.
Desenredame, fuera de este mundo.
Dime que no estoy, so~andote.
Ense~ame, de que estamos hechos.
Que quiero habitar planetas,
hasta ver uno vacio,
que quiero irme a vivir,
pero que sea contigo.

Viento, amarranos.
Tiempo, detente muchos a~os.
Viento, amarranos.
Tiempo, detente muchos a~os.

Prestame tu peine, y peiname el alma.
Purificame, no me abandones.
Prestame tu sueno, y duermeme.
Embrujame, volvamonos eternos.
Que quiero habitar planetas,
hasta ver uno vacio,
que quiero irme a vivir,
pero que sea contigo.

Viento, amarranos...




[Viento acordes][Viento cifra]
© LaCuerda.net · legal notice · privacy · es · en · pt · contact us
DINAMICO