Guitar Chords » C »Caifanes » Afuera (Tab)

Afuera
Caifanes

Lyrics, Chords & Tabs for Guitar, Bass & Ukulele

  •         Bm
    Muchos a~os uno cree,
    
    que el caer es levantarse,
            Em              Esus4  E
    y de repente, ya no te paras.
    
     
    Bm
    Que el amor es temporal,
    
    que todo te puede pasar,
            Em               E
    y de repente, estas muy solo.
     
    
       Bm                  Em           F#7     
    Afuera, afuera tu no existes solo adentro.
       Bm                  Em         F#7       
    Afuera, afuera no te cuido solo adentro.
    
  • Bm
    Muchos años uno cree
    Bm
    Que el caer es levantarse
    Em
    Y de repente ya no te paras.
    
    Bm
    Que el amor es temporal
    Bm
    Que todo te puede pasar
    Em
    Y de repente estas muy solo.
    
    Bm                    Em          F#m
    Afuera, afuera tu no existes solo adentro
    Bm                    Em          F#m
    Afuera, afuera no te cuido solo adentro
    Bm                    Em          F#m
    Afuera te desbarata el viento sin dudarlo
    
  • Intro: 2 veces
         |----------------------|---------------------|-----------------------|----|
         |----------------------|---------------------|-----------------------|----|
         |----------------------|---------------------|-----------------------|----|
         |--9--7-------9-7---7--|-9--7-------9-7---7--|---9--7-------9-7---7--|-9--|
         |--------9--------9----|-------9--------9----|---------9--------9----|----|
         |----------------------|---------------------|-----------------------|----|
    
    Verso:
       |------------------------|--------------------------|
       |------------------------|--------------------------|
       |------------------------|--------------------------|
       |-------2-0---------2-0--|-------2-0----------2--0--|
       |-----2-----------2------|-----2-----------2--------|
       |--0-----------0---------|--0-----------0-----------|
       
    
    Coro:
         |-----2---------|-----2----------|-----2---------|-----2----------|
         |-0-0---3-3-2-3-|-0-0---3-3-2-3--|-0-0---
  • e|----------------------|---------------------|-----------------------|----|
    
    B|----------------------|---------------------|-----------------------|----|
    
    G|----------------------|---------------------|-----------------------|----|
    
    D|--9--7-------9-7---7--|-9--7-------9-7---7--|---9--7-------9-7---7--|-9--|
    
    A|--------9--------9----|-------9--------9----|---------9--------9----|----|
    
    E|----------------------|---------------------|-----------------------|----|
    
    
    
    Aqui entran los teclados con un sonido suave e interminable desde B hasta B
    
    de la siguiente octava, completando con D y F# para un Bm
    
      (Bm)
    
    
  •      Bm
                           h                       h                       h
    e |-----------------------|-----------------------|-----------------------|----|
    b |-----------------------|-----------------------|-----------------------|----|
    g |-----------------------|-----------------------|-----------------------|----|
    d |--9--7-------9-7---7/9-|--9--7-------9-7---7/9-|--9--7-------9-7---7/9-|-9--|
    a |--------9--------9-----|--------9--------9-----|--------9--------9-----|----|
    e |-----------------------|-----------------------|-----------------------|----|
     
                           h                       h                       h
    e |-----------------------|-----------------------|-----------------------|----||
    b |-----------------------|-----------------------|-----------------------|----||
    g |-----------------------|-----------------------|-----------------------|----||
    d |--9--7-------9-7---7/9-|--9--7-------9-7---7/9-|--9--7-------9-7---7/9-|-9--||
    a |--------9--------9-----|--------9--------9-----|--------9--------9-----|----||
    e |-----------------------|-----------------------|-----------------------|----||
     
    (Gtr 2)
    (Play 4 times)
         Bm
    
  • Intro y Verso.-
    |-------------------------------------|
    |------444--------------444-----------|
    |--2-2-------2-2---2-2------2-2--2-2--|   No estoy seguro cuantas 
    |-----------------2-------------2-----|         veces se repite.
    
    Luego cambia a esto.-( y derepenete....ya no te paras)
    |------------------------|
    |------2p0------2p0-2----|
    |------------------------|
    |--0-0------0-0----------|
    
    *Todo se repite dos veces*
    
    Coro.- (afuera....afuera tu no existes solo adentro....)
    |--------------------------------------|
    |--------------2-2-2-2-2---------------|
    |-2-2-2-2-2-2--------------------------|
    |------------------------2-2-2-2-2-2-2-|
    
    (ahhhh....)
    |---------------------------------------|
    |---------------------------------------|    
    |---------------------------------------|    
    |--3-3-3-3-3--5-5-5-5-5--7-7-7-7-7------|
    
    *Verso*
    *Coro*
    
    Aqui empieza el requinto mientras tu tocas esto.-
    |-----------------------|
    |-----------------------|
    |-----------------
  • CHEQUEN BIEN LOS TIEMPOS, NOTA X NOTA
    
    
    INTRO GUITARRA SOLA:
    
    W                H           W                H
    G||----------------------------|----------------------------|
    D||----------------------------|----------------------------|
    A||----------------------------|----------------------------|
    E||----------------------------|----------------------------|
    
    
      W                H           W                H
    ----------------------------|----------------------------|
    ----------------------------|----------------------------|
    ----------------------------|----------------------------|
    ----------------------------|----------------------------|
                AQUI ENTRA EL BAJO
    
      W                H           H        E  E  H        E  E
    ----------------------------|--------------------------------|
    ----------------------------|--------------------------4--4--|
    ----------------------------|--2--------L--2-----------------|
    ----------------------------|--------------------------------|
    
    
      H     
  • Intro y Verso
    
    G|-----------------------------------
    D|------------4-4--------------------
    A|---2----2--------2----2------------
    E|--------------------------2-------- x6
    
    
    
    Pre-Coro
    
    G|----------------------------------
    D|------2---2--0-------0---2--------
    A|--0--------------2----------------
    E|---------------------------------- x2
    
    Verso  x2
    
    Pre-Coro x2
    
    Coro
    
    G|--------------------------------------
    D|--------------------------------------
    A|--2222222-0/1/2222222 0/1/2222222222--
    E|--------------------------------------
    
    G|-----------------------------
    D|-----------------------------
    A|-----------------------------
    E|--333333333-555555555--------        x4
    
    G|-----------------------------
    D|-----------------------------
    A|--77777777 99999999----------
    E|-----------------------------   Esto se toca despues de la
                                      cuarta (4a) vez que toques el coro
                                      y sigue el verso. 
                  
  •   Esta canción esta en el mismo sistema en que se 
      explica la canción de Triste canción de El Tri.
    
             11-
      Muchos años uno cree
      6   6  2  1 2     6
             -  - -
    
      que el caer es levantarse
       6     6  2  1  2 1  6  6
                -  -  - -
              4              4sus
      y de repente ya no te paras
      6  6  6  8 8  8  8  8  9 9
     
    11-
      que el amor es temporal
        6    6 2  1   2  1 6
               -  -   -  -
    
      que todo te puede pasar
        6  6 2  2  1  2  1 6
             -  -  -  -  -
              4               4sus 
      y de repente estas muy solo
      6  6  6  8 8 8  8   8   9 9
    
       11-
      Afue-era
      4  6 4 2
      -  - - -
                     4- 
      afuera tu no existes
      2  2 2  2  2  7   7
      -  - -  -  - 
             6
      solo adentro
      7  2   2   1
         -   -   -
       11-
      afue-era
      4  6 4 2
      -  - - -
                    4-
      afuera no te cuido
      2  2 2 2   2 7   7
      -  - - -   -
             6 
      solo adentro
      7  2   2   1
         -   -   -
      
  • +
    ¡Colabora con nosotros!
    Envíanos tu versión de esta canción
  • Tutorial
    HD
    Como tocar AFUERA en guitarra - Caifanes [Tutorial Somos Posers]
    12:33

Afuera Lyrics
Muchos a~os uno cree,
que el caer es levantarse,
y de repente, ya no te paras.

Que el amor es temporal,
que todo te puede pasar,
y de repente, estas muy solo.

Afuera, afuera tu no existes solo adentro.
Afuera, afuera no te cuido solo adentro.
Afuera, te desbarata el viento sin dudarlo.
Afuera, nadie es nada solo adentro.
Ah, Ah, Ah.
Siguen los anos y uno esta,
creyendo que puede rezar,
y de repente, ya te perdiste.

Y uno cree que puede creer,
y tener todo el poder,
y de repente, no tienes nada.

Afuera, afuera tu no existes solo adentro...




[Afuera acordes][Afuera cifra]
© LaCuerda.net · legal notice · privacy · es · en · pt · contact us
DINAMICO