Guitar Chords » C »Caifanes » Matenme porque me muero (Tab)

Matenme porque me muero
Caifanes

Lyrics, Chords & Tabs for Guitar, Bass & Ukulele

  • G                            Em
    Cuando me muera y me tengan que enterrar,
    G                               Em
    Quiero que sea con una de tus fotografias,
    F                  Dm            G
    Para que no me de miedo estar abajo,
    F                   Dm                G
    Para que no se me olvide como es tu cara,
    F         Dm                G
    Para imaginar que estoy contigo,
    F          Dm          G
    Y sentirme un poquito vivo.
    
     G         Bm      Em
    Matenme porque me muero,
     G         Bm      Em
    Matenme porque no puedo,
     G         Bm      Em
    Matenme porque me muero,
     G         Bm      Em
    
  •  G                              
     Cuando me muera 
                   Em
     y me tengan que enterrar,
       G
     quiero que sea 
                     Em
     con una de tus fotografias,
    
    
     F                   Dm          G    
     para que no me de miedo estar abajo,
     F                    Dm              G      
     para que no se me olvide como es tu cara,
     F          Dm               G          
     para imaginar que estoy contigo,
     F         Dm           G       
     y sentirme un poquito vivo.
    
      
    
  • Esta es la introduccion de la cancion. Este Tab esta Completo.
    Varias veces
    e-15~------------19-17-15----|
    b----15~-13~-12~-------------|
    g----------------------------|
    d----------------------------|
    a----------------------------|
    e----------------------------|
    
    Y luego
    
    e--3------3------------------|
    b----3------3----------------|
    g------0------0--------------|
    d----------------------------|
    a----------------------------|
    e----------------------------|
    
    Mientras canta 'Para que no me de miedo estar abajo...'
    varias veces (la ultima vez hasta la ^).
                                  ^
    e-8---8--8--8--10---10---10---10-12-12-12-10----------------|
    b-6-6--6--6--6----6----6----6-------------------------------|
    g-----------------------------------------------------------|
    d-----------------------------------------------------------|
    a-----------------------------------------------------------|
    e-----------------------------------------------------------|
    
    Luego mient
  •  D |-------10---9---|--------------------10---9---|
     A |----------------|-----------------------------|
     E |----------------|-----------------------------|
                         desde aquí, este compaz se   
                          repite 3 veces.
    
     En el coro hay un chillido en la lira que es asi:
    
      Matenme por que me muero
      
     e |----------|
     b |----------|
     g |--15~/8---|
     D |----------|
    
      Matenme por que no puedo
    
     e |-------------|
     b |-------------|
     g |--15--15~/8--|
    
  • E |-----7-----7--10----7-------|-----7-----7--9-----7-------|
    B |--8--------------8-----8----|--7--------------7-----7----|
    G |----------------------------|----------------------------|
    D |----------------------------|----------------------------|
    A |----------------------------|----------------------------|
    E |----------------------------|----------------------------|
    
    
    ----------------------------|----------------------------|
    --5-----5-----3-----3-------|--2-----2-------------------|
    ----------------------------|--------------4-----4-------|
    ----------------------------|----------------------------|
    ----------------------------|----------------------------|
    ----------------------------|----------------------------|
    
    
    -----7-----7--10----7-------|-----7-----7--9-----7-------|
    --8--------------8-----8----|--7--------------7-----7----|
    ----------------------------|----------------------------|
    ----------------------------|----------------------------|
    
  • Que tal!! espero les guste esta versión, para mi suena bastante bien.
    Lo único es que, tienen que agarrarle bien el ritmo a la canción.
    
    Intro
    G|------------5---4-2------------5---4-2--|
    D|----5------------------5----------------|
    A|--------5------------------5------------| x2
    E|--3---3---3---3------0---0---0---0------|
    
    Verso
    G|--------------------0h2-0----------------------------|
    D|--------------------------2-0------------------------|
    A|------------------------------3-2--------------------|
    E|-33333333-00000000-----------------33333333-00000000-|
    Cuando me muera...
    
    G|----------------------------------------------------|
    D|-3333-2-3-2-----------------------------------------|
    A|------------5555--3-5-3------0000--2------0000--2—0-|x3
    E|------------------------3333---------3333-----------|
    Para que no me de miedo...
    
    Pre-coro
    G|-----------------------------------------|
    D|-3333-2-3-2------------------------------|
    A|------------5555--3-5-3------0-2---0--2—-|
    E|------------------
  • El único tab de bajo que habia de esta rola no estaba correcto,
    aqui esta 100% correcto
    
    
    Intro
    G|------------5---4-2------------5---4-2--|
    D|----5------------------5----------------|
    A|--------5------------------5------------| x2
    E|--3---3---3---3------0---0---0---0------|
    
    Verso
    G|---------------------------------------------------|
    D|------------------2h3-2-0--------------------------|
    A|--------------------------3-2-0--------------------|
    E|--3~----0~----------------------3~------------0~---|
    Cuando me muera...
    
    Pre-coro
    G|-------------------------------------||
    D|-3--2-3-2----------------------------||
    A|----------5--3-5-3------------3h5----||x4
    E|-------------------3-5-7--5h7--------||
    Para que no me de miedo...
    (La cuarta vez termina en SI (E-7)
    
    Coro
    G|--------------------|
    D|--------------------|
    A|--------------------| x4
    E|--3~---2~---0~------|
    Matenme por que...
    
    Puente     (x2)
    G|-----------------------------|----|
    D|-----------------------------|----|
    A|--0-00-0-3-33-3-2
  • +
    ¡Colabora con nosotros!
    Envíanos tu versión de esta canción
  • Tutorial
    HD
    Como Tocar Mátenme Porque Me Muero - Caifanes [Tutorial Guitarra]
    7:56

Matenme porque me muero Lyrics
Cuando me muera
y me tengan que enterrar,
quiero que sea
con una de tus fotografias,
para que no me de miedo estar abajo,
para que no se me olvide como es tu cara,
para imaginar que estoy contigo,
y sentirme un poquito vivo.

Matenme porque me muero,
matenme porque no puedo,
matenme porque me muero,
matenme porque no puedo.

Esta enfermedad es incurable,
esta enfermedad ni con un valium... ­No!

Cuando me muera
y me tengan que enterrar,
quiero que sea con dulces
y no con piedras,
por si alguna vez me buscas,
estare eternamente lejos,
como para darte solo flores,
te guardare mil estrellas.

Matenme porque me muero...




[Matenme porque me muero acordes][Matenme porque me muero cifra]
© LaCuerda.net · legal notice · privacy · es · en · pt · contact us
DINAMICO