Guitar Chords » V »Vicentico » Paisaje (Tab)

Paisaje
Vicentico

Lyrics, Chords & Tabs for Guitar, Bass & Ukulele

  • Intro:A#m F#
    
    A#m
    No debemos de pensar que ahora es diferente
    F#
    Mil momentos como este quedan en mi mente
    G#
    No se piensa en el verano cuando cae la nieve
    C#                                   F
    Deja que pase un momento y volveremos a querernos
    
    Jamás la lógica del mundo nos ha dirigido
    Ni el mañana tan incierto nos ha preocupado
    Una vez los dos pensamos, "hay que separarse"
    mas deshicimos las maletas antes de emprender el viaje
    
    Estribillo
    A#                                              F
    Tú, no podrás faltarme cuando falte todo a mi alrededor
    D                                           Gm
    
  • Intro    Am   Dm   G7   C   E7   (2)
    
    Am
    No debemos de pensar que ahora es diferente,
    F
    mil momentos como este quedan en mi mente,
    G
    no se piensa en el verano cuando cae la nieve,
    C                            E7
    deja que pase un momento, y volveremos a querernos.
    
    
    Jamás la lógica del mundo nos ha dividido,
    Dm
    ni el futuro tan incierto nos ha preocupado,
    una vez los dos pensamos hay que separarse,
    más deshicimos las maletas, antes de emprender el viaje.
    
    
    CORO
    
  • ojo: es bajo de 5 cuerdas solo se utiliza la 5 cuerda en algunas partes,
    se tiene que escuchar bien la canción para llevar el ritmo.
    
    g-----------------------------------------------------------|
    d-----------------------------------------------------------|
    a-------------------6-6-6-6-------------4-4-4-4---2-4-4---4-|
    e-6-6-6-6-4-6-6-4-----------6-4-4-4-4-4---------4-------4---|
    b-----------------6-----------------------------------------|
    
    g---------------------|
    d---------------------|
    a-8-8-8-8-8-8-8-5-----|
    e-----------------8-6-|
    b---------------------|
    
    No debemos de pensar que ahora es diferente
    Mil momentos como este quedan en mi mente
    No se piensa en el verano cuando cae la nieve
    
    g---------------------|
    d---------------------|
    a-4--------4/8--------|
    e---------------------|
    b---------------------|
    
    Deja que pase un momento y volveremos a querernos.
    
    g-----------------------------------------------------------|
    d-----------------------------------------------------------|
    a--
  • +
    ¡Colabora con nosotros!
    Envíanos tu versión de esta canción
  • Tutorial
    Como Tocar (Paisaje )
    De Vicentico Guitarra Tutorial
    11:37
  • Tutorial
    como tocar PAISAJE- DE VICENTICO
    3:34

Paisaje Lyrics
No debemos de pensar que ahora es diferente,
mil momentos como este quedan en mi mente,
no se piensa en el verano cuando cae la nieve,
deja que pase un momento, y volveremos a querernos.
Jamás la lógica del mundo nos ha dividido,
ni el futuro tan incierto nos ha preocupado,
una vez los dos pensamos hay que separarse,
más deshicimos las maletas, antes de emprender el viaje.
Tú, no podrás faltarme cuando falte todo a mi alrededor,
tú, aire que respiro en aquel paisaje donde vivo yo,
tú, tú me das la fuerza que se necesita para no marcharse,
tú me das amor, me das amor.
Repetir 1ª. Estrofa
Me das amor, ahhh amor.




[Paisaje acordes][Paisaje cifra]
© LaCuerda.net · legal notice · privacy · es · en · pt · contact us
DINAMICO