Guitar Chords » V »Vicentico » Los caminos de la vida (Tab)

Los caminos de la vida
Vicentico

Lyrics, Chords & Tabs for Guitar, Bass & Ukulele

  •       LAm
    6E||------------------------------------------------|
    5A||------------------------------------------------|
    4D||--2-2-------------------------------------------|
    3G||-------2-2--------------------------------------|
    2B||------------1-1--------1--------1-----------3---|
    1E||-----------------0-0------0-0------0-0--0-------|
    
    6E|--------------------------------------------||
    5A|--------------------------------------------||
    4D|--------------------------------------------||
    3G|-------------------2--------2---------------||
    2B|0--3-3--0--3-3-3-1-----1-1-----1------------||
    1E|------------------------------------1-1-1/0-||
    
                  Am
    Los caminos de la vida
                    G
    no son lo que yo esperaba,
                 F
    
  • Intro: capo 3er traste (se repite dos veces)
    
    
    e|--------------------------------|
    B|--------------------------------|
    G|--------------4----4-4---4-4--2-|
    D|-----2-2--5-5----5-----5--------|
    A|-2-2----------------------------|
    E|--------------------------------|
    
    e|-----------------------------------|
    B|-----------------------------------|
    G|---2-2---2-2-----------------5-4---|
    D|-4-----4-----4/5---2-5-5-2-5-----5~|
    A|-----------------------------------|
    E|-----------------------------------|
    
                  Em
    Los caminos de la vida
                    D
    
  • estas notas las saque en una armónica en c
    (6)= 6 soplado
    6=6 aspirado
    
    (5) (5) 6 6 (7) (7) (8) (8)
    
    (7) (8) (8) (7) (8) (8) 8 8
    
    7 8 8 7 8 8 (7) (7)
    
    6 (7) (7) 6 (7)  9 (8)
    
    Y luego vuelve a empezar
    si hay alguien que se sepa lo que sigue corrigame
  • = - = - = - = - = - = - = - = - = - =
     Título: Los caminos de la vida
     Género: Pop
     Para..: Piano y Teclado
    = - = - = - = - = - = - = - = - = - =
       Espero les guste esta transcripción, aunque e falta le letra,
    les garantizo que las notas son correctas.
    
    Mi Mi La La do do mi mi
    do mi mi do mi mi re re
    Si re re Si re re do do
    La do do La do fa mi
    
    Mi Mi La La do do mi mi
    do mi mi do mi mi re re
    Si re re Si re re do do
    La do do La do fa mi
    
    Mi Mi do do re re mi mi
    do mi mi do mi mi re re
    Si re re Si re re do do
    La do do La do fa mi mi
    
    Mi Mi do do re re mi mi
    do mi mi re re Sol Sol
    Si Si do do re Si re re do
    do Fa Fa La La Si Si do La do fa mi
    mi re mi re mi re mi mi
    mi mi re re Sol Sol Si Si do do re
    Si re re do do Fa Fa La La
    do do fa do fa do mi
    
    [estribillo]
    
    mi mi mi mi re re re do do do Sol
    mi mi mi mi re re re do do Si
    re re re re do do do Si Si Si Si
    re re re re do do do Si La Sol
    
    mi mi mi mi re re re do do do Sol
    mi mi mi mi re re re do do Si
    re re re re do do do Si Si Si Si
  • +
    ¡Colabora con nosotros!
    Envíanos tu versión de esta canción
  • Tutorial
    HD
    como tocar LOS CAMINOS DE LA VIDA en guitarra cover
    5:51

Los caminos de la vida Lyrics
Los caminos de la vida
no son lo que yo esperaba,
no son lo que yo creía,
no son los que imaginaba.
Los caminos de la vida
son muy difícil de andarlos,
difíciles de caminarlos,
y no encuentro la salida.
Yo pensaba que la vida
era distinta,
y cuando era chiquitito,
yo creía que las cosas
eran fáciles como ayer.
Que mi madre preocupada,
se esmeraba
por darme todo lo que
nececitaba,
y hoy me doy cuenta
que tanto así no es.
Porque a mi madre
la veo cansada,
de trabajar por mi hermano
y por mi.
Y ahora con ganas
quisiera ayudarla,
y por ella la peleo
hasta el fin.
Por ella lucharé
hasta que me muera,
y por ella
no me quiero morir.
Tampoco que
se me muera mi vieja,
pero yo se
que el destino es así.
Acá les mando el intro y el arreglo a los acordes que publicaron otras personas.
El Fm, es en realidad, un F.
Un saludo para todos los de 3° 14 del Rivadavia (en especial a Guille y a Diego)
y para todos los pibes de Podestá y El Palomar.
Boludooos,Tipo Na', Ojalà nunca les pase.




[Los caminos de la vida acordes][Los caminos de la vida cifra]
© LaCuerda.net · legal notice · privacy · es · en · pt · contact us
DINAMICO