Guitar Chords » U »Usted Señalemelo » Pana (Tab)

Pana
Usted Señalemelo

Lyrics, Chords & Tabs for Guitar, Bass & Ukulele

  • Bmaj7 - Bmaj7-C#maj7
    
    Dmaj7 - Eadd9 - C#m - Bm7 x2
    
    
    Dmaj7                     Eadd9      C#m
            Ahora que estoy acá, debo notar.
                      Bm7
            Estás cansada de estar rodeada y
    Dmaj7               Eadd9         C#m
            lo puedo videar, ellos te quieren armar
                      Bm7           C#m    E/G# F#m
            de formas que mas hacen que    cambies.
    
    (F#m)                C#dim7
            Talvez ya no quiera
                   Dmaj9            Bm7    C#m  E/G#
            Despertar         , escaparme.
    F#m                   C#dim7
            No sé que hay atrás.
    
  • ---4---6-|----------------------------------------|
    ---------|----------------------------------------|
    -2---4--|5-5--5---7-7--7---4-4--4--2-2--2--4--|     x3
    ---------|----------------------------------------|
    
    ---------------------------------------------
    ---------------------------------------------
    5-5--5---7-7--7---4-4--4--2-2--2--4------  -]
    ----------------------------------------4--2-
    
    -----------------------------------6---------
    --4------------------------------------6-----
    -------2--4--2h4--4--4h5-5--2-2--4-----------
    -----2-------------------------------4---2---
    
    --------------------------------------|----------------------------------------
    --4-----------------------------------|----------------------------------------
    -------2--4--2h4--4--4h5-5--2-2--4----|-5-5--5---7-7--7---4-4--4--2-2--2--4----
    -----2------------------------------4-|----------------------------------------
    
    ------------------------------------------
    ------------------------------------------
    -5-5--5---7
  • +
    ¡Colabora con nosotros!
    Envíanos tu versión de esta canción

Pana Lyrics
Ahora que estoy acá, debo notar.
Estás cansada de estar rodeada y
lo puedo videar, ellos te quieren armar
de formas que mas hacen que cambies.
Talvez ya no quiera
Despertar , escaparme.
No sé que hay atrás.
Pero nos llama, nos atrae.
Oro derriteme, los gigantes ya vienen.
A pasos agigantados, sueños conectados.
Talvez ya no quiera
Despertar , escaparme.
No sé que hay atrás.
Pero nos llama, nos atrae.
Si quieres, lo tienes.
Si quieres, lo tienes.
Si quieres, lo tienes.
Si quieres, lo tie--nes.
Talvez ya no quiera
estar acá , despertarme.
No sé que hay atrás.
Pero me llama, nos atrae.
Talvez ya no quieras.
Estar acá, escaparte.
No sabes que hay atrás.
Pero te llama, nos atrae.
e|-2--| e|-4--| e|-x--|
B|-4--| B|-6--| B|-7--|
G|-3--| G|-5--| G|-6--|
D|-4--| D|-6--| D|-7--|
A|-2--| A|-4--| A|-5--|
E|-x--| E|-x--| E|-x--|
e|-x--| e|-x--| e|-x--|
B|-7--| B|-5--| B|-5--|
G|-4--| G|-4--| G|-3--|
D|-6--| D|-6--| D|-5--|
A|-7--| A|(7)-| A|-4--|
E|-x--| E|-4--| E|-x--|
e|-x--| e|-x--| e|-x--|
B|-5--| B|-12-| B|-12-|
G|-6--| G|-11-| G|-10-|
D|-4--| D|-12-| D|-12-|
A|-5--| A|-10-| A|-11-|
E|-x--| E|-x--| E|-x--|
e|-x--| e|-x--| e|-9--|
B|-14-| B|-14-| B|-10-|
G|-13-| G|-12-| G|-11-|
D|-14-| D|-14-| D|-11-|
A|-12-| A|-13-| A|-9--|
E|-x--| E|-x--| E|-x--|




[Pana acordes][Pana cifra]
© LaCuerda.net · legal notice · privacy · es · en · pt · contact us
DINAMICO