Bass Tab of Usted Señalemelo: Pana
Usted Señalemelo
Ii [2017]
---4---6-|----------------------------------------|
---------|----------------------------------------|
-2---4--|5-5--5---7-7--7---4-4--4--2-2--2--4--|     x3
---------|----------------------------------------|

---------------------------------------------
---------------------------------------------
5-5--5---7-7--7---4-4--4--2-2--2--4------  -]
----------------------------------------4--2-

-----------------------------------6---------
--4------------------------------------6-----
-------2--4--2h4--4--4h5-5--2-2--4-----------
-----2-------------------------------4---2---

--------------------------------------|----------------------------------------
--4-----------------------------------|----------------------------------------
-------2--4--2h4--4--4h5-5--2-2--4----|-5-5--5---7-7--7---4-4--4--2-2--2--4----
-----2------------------------------4-|----------------------------------------

------------------------------------------
------------------------------------------
-5-5--5---7-7--7---4-4--4--2-2--2--4--- -]
-----------------------------------------4

-------------------------------------6---------
----4------------------------------------6-----
---------2--4--2h4--4--4h5-5--2-2--4-----------  -]
-2----2----------------------------4---2----

--------------------------------------|---------------------------------
--4-----------------------------------|-----11--------------------------
-------2--4--2h4--4--4h5-5--2-2--4----|--9------9--7--10--11--12-12/16--(Sil)
-----2------------------------------4-|---------------------------------

(2:23)

-------------------------------------------------------------------
-------------------------------------------------------------------
-2/5-5-5-5-5-5-5/7-7-7-7-7-7-7/4-4-4-4-4-4-4/2-2-2-2-2-2--4-------- -]
-------------------------------------------------------------------4--2--


-----------------------------------6----
--4------------------------------------6
-------2--4--2h4--4--4h5-5--2-2--4------ -]
----2--------------------------------4--

-----------------------------------------
----4-------------------------------------
--------2--4--2h4--4--4h5-5--2-2--4------ -]
-2----2---------------------------4---

-------------------------------------6---
----4-----------------------------------6
--------2--4--2h4--4--4h5-5--2-2--4------ -]
-2----2---------------------------4--

------------------------------------------
----4-------------------------------------
--------2--4--2h4--4--4h5-5--2-2--4------- -]
-2----2---------------------------4----

--------------------------------------------|
--------------------------------------------|
5-5--5---7-7--7---4-4--4--2-2--2--4------|
-----------------------------------------4--|


 Ruffneck.01@hotmail.com pidanme acordes que necesiten canciones. Saludos!
This file is the work if its transcriptor and it represents his/her own interpretation of the song. This material is intended for PERSONAL USE ONLY. It is strictly forbiden to copy, reproduce or retransmit the contents of this website. Legal actions will be taken if required.
© LaCuerda.net · legal notice · privacy · es · en · pt · contact us