Guitar Chords » U »el Ultimo de la Fila » Sin Llaves (Tab)

Sin Llaves
el Ultimo de la Fila

Lyrics, Chords & Tabs for Guitar, Bass & Ukulele

  • Am                        C
    La vida que espero y esperare
     Am                  G              Am
    a la sombra en el oasis que me invente.
                          C           Am
    Como el sabio en las cumbres del saber
                    G
    soy alga en el mar de la calma;
    Am                C           Am
    soy tabla de mi propia salvacion.
                      G           D
    Me quiero y me protego de mi misma voz.
    
    
    F     Am
    Llevame,
              C         G
    con mi corazon yo suelo hablar,
    F         Am          C
    donde reine un tibio sol
    
  •         Am  Cadd9  G  D  F  Em
    |-------0----3-----3--2--1--0---|
    |-------1----3-----3--3--1--0---|
    |-------2----0-----0--2--2--0---|
    |-------2----2-----0--0--3--2---|
    |-------0----3-----2--X--3--2---|
    |-------0----X-----3--X--1--0---|
    
    <----------------INTRO (x3): ---------------->
    
           Am      Cadd9       Am         G              D            D
    |---------------------|---------------------| ------0--0---------0--0-----|
    |-------1-0-------3-0-|------1-0-------3-0--| ----3--3--3-3----3--3--3-3--|
    |---------------0-----|--------------0------| -----2--2--2------2--2--2---|
    |-----2---------------|----2----------------| --00-----------00-----------|
    |---00-------03-------|-00--------0---------| ----------------------------|
    |---------------------|------------3--------| ----------------------------|
    
          ^
          | Esa nota no se toca la primera vez (al comenzar la canción).
    
  • |----------------------------------------------| 
    |---------1-0--------3-0--------1-0--------3-0-| 
    |------------------0---------------------0-----|  
    |-------2---------------------2----------------|   
    |-(0)-0--------0-3--------0-0--------0---------|  
    |--------------------------------------3-------| 
       
       *La primera nota entre paréntesis no suena la primera vez, pero si
    las siguientes                                          
    
    
    PARTE 2:
       *Aquí hay que jugar con estas notas para que suene igual que en 
    la canción original, si la habéis escuchado sabéis a que me refiero
      **De todas formas así suena bastante bien:
    
    |--------0-----0-----0-----------0-----0-----0-----|
    |----------3-----3-----3-----------3-----3-----3---|
    |------0-----0-----0-----0-----0-----0-----0-----0-|
    |--0-0---------------------0-0---------------------|
    
  • +
    ¡Colabora con nosotros!
    Envíanos tu versión de esta canción

Sin Llaves Lyrics
La vida que espero y esperare
a la sombra en el oasis que me invente.
Como el sabio en las cumbres del saber
soy alga en el mar de la calma;
soy tabla de mi propia salvacion.
Me quiero y me protego de mi misma voz.
Llevame,
con mi corazon yo suelo hablar,
donde reine un tibio sol
a la luz de una espiga
donde calentar
mis pies descalzos, o quiza donde andar.
Quien duda
no espera
remanso en agua fiera.
Que pienso
anhelos del sentimiento.
mi tiempo,
que crezcan ansiosos por enamorar.
Llevame
con mi corazon yo suelo ir.
al lugar donde naci
a buscar caracolas al fondo del mar
que inunden mi paladar.
Despliego mis velas que hay que partir,
ahora canta el jilguero junto al rosal.
El alma remonta, quiere volar,
hoy es un gavilan en celo.
Candiles de aceite habra que encender
pintores holandeses mis manos mancharan.
En este altar antiguo que levante
a lo alto de mis horas quiero subir,
y como polen nuevo me quiero esparcir
en un total abandono.
Espero que os guste es mi primera !!
Un saludo desde Lorca (Murcia)




[Sin Llaves acordes][Sin Llaves cifra]
© LaCuerda.net · legal notice · privacy · es · en · pt · contact us
DINAMICO