Guitar Chords » U »el Ultimo de la Fila » Insurrección (Tab)

Insurrección
el Ultimo de la Fila

Lyrics, Chords & Tabs for Guitar, Bass & Ukulele

  • e|-----------------|
    B|-----------------|
    G|-------0---2-0-2-|
    D|---0-2---3-3-3-3-|
    A|-3---------------|
    E|-3---------------|
    
    C                F
    Donde estabas entonces
           C                 F
    cuando tanto te necesite...
    C                   F
    Nadie es mejor que nadie,
         C             F
    pero tu creiste vencer
    C                 F
    Si llore ante tu puerta
                 G  G
    de nada sirvió
    
    
  • Intro1:  SOL        DO                SOL        DO
           --3----------0-----------------3----------0-
           --0----------1-----------------0----------1-
           --0----------0-----------------0----------0-
           --0-------0--2--2--0--2--2--0--0-------0--2-
           --2--0--2----3-----------------2--0--2----3-
           --3----------------------------3------------
    
    Intro2:  SOL        DO
           --3----------0--
           --0----------1--
           --0----------0--
           --0-------0--2--
           --2--0--2----3--
           --3-------------
    
    Intro1
    SOL               DO
    ¿Dónde estabas entonces
            SOL           DO
    
  • ---------------------------------------------------------|
    ---------------------------------------------------------|
    ---------------------------0---------2--0--2--2--0-------|
    ----------2--------0---2--------3----3--3--3--3--3----2--|
    --3-------3---------------------3---------------------3--|
    --3-------3-------------------------------------------3--|
    
    (Otra vez lo mismo)
    
    
    
    ESTROFA
    
    C                F
    Donde estabas entonces
    
           G                 F
    cuando tanto te necesite...
    
    C                   F
    
  • +
    ¡Colabora con nosotros!
    Envíanos tu versión de esta canción

Insurrección Lyrics
Intro1
¿Dónde estabas entonces
cuando tanto te necesité?
Nadie es mejor que nadie
Pero tú creíste vencer.
Si lloré ante tu puerta
de nada sirvió.
Barras de bar vertederos de amor
os enseñé mi trocito peor.
Retales de mi vida,
fotos a contraluz.
Me siento hoy como un halcón
herido por las flechas de la
incertidumbre.
Me corto el pelo una y otra vez.
Me quiero defender.
Dame mi alma y déjame en paz.
Quiero intentar no volver a caer.
Pequeñas tretas
para continuar en la brecha.
Me siento hoy como un halcón
llamado a las filas de la
insurrección.




[Insurrección acordes][Insurrección cifra]
© LaCuerda.net · legal notice · privacy · es · en · pt · contact us
DINAMICO