Guitar Chords » S »La Sonora Dinamita » Oye (Tab)

Oye
La Sonora Dinamita

Lyrics, Chords & Tabs for Guitar, Bass & Ukulele

  • Intro    G  Em  C  D
    
    G                    Em
    LA LA LA, LA LA LA  LA LA LA,
    C                   D
    LA LA LA, LA LA LA  LA LA LA,     (2)
    
    CORO
     G              Em               C
    Oye, abre tus ojos, mira hacia arriba,
                  D                         G
    disfruta las cosas buenas que tiene la vida,
             Em                 C
    abre tus ojos, mira hacia arriba,
                  D                         G    C  D   G  C   D
    disfruta las cosas buenas que tiene la vida.
    
    G                        Em
    Un descanso en el camino, una botella de vino,
    C                      D
    
  • e|-8--8--8-7--------------------|--------------------------| (x2)
    B|-----------10----8-10--10-8-6-|-------6--6-7-8-6-7-8--6-7|
    G|---------------9--------------|--7-9---------------------|
    D|------------------------------|--------------------------|
    A|------------------------------|--------------------------|
    E|------------------------------|--------------------------|
    
    [Coro]
    e|-8--8--8-7--------------------|--------------------------| (x2)
    B|-----------10----8-10--10-8-6-|-------6--6-7-8-6-7-8--6-7|
    G|---------------9--------------|--7-9---------------------|
    D|------------------------------|--------------------------|
    A|------------------------------|--------------------------|
    E|------------------------------|--------------------------|
    
    [Puente] (Sonido de los metales)
    e|--------8-6--6--6-6--|--------8-6--6--6-6--|
    B|-8--5-8--------------|-8--5-8--------------|
    G|---------------------|---------------------|
    D|---------------------|---------------------|
    
  • +
    ¡Colabora con nosotros!
    Envíanos tu versión de esta canción

Oye Lyrics
Oye, abre tus ojos, mira hacia arriba,
disfruta las cosas buenas que tiene la vida,
abre tus ojos, mira hacia arriba,
disfruta las cosas buenas que tiene la vida.
Un descanso en el camino, una botella de vino,
un suspiro una mirada, una alegre carcajada,
una cara en el espejo, un amigo un buen consejo,
un viaje en barco o velero, aunque no llegues primero,
un caballito herrero, que no corra por dinero,
un palmar un riachuelo, un pedacito de cielo.
PRE
Mira bien alrededor, y verás las cosas buenas,
que la vida es un amor, olvídate de tus penas.
Una playa un cumpleaños, un buen recuerdo de antaño
un olor a hierbabuena, una conversación amena,
un romance que ha nacido, que te roba los sentidos,
un parque lleno de niños, un bellísimo cariño,
una lágrima un momento, que sea todo sentimiento,
una música muy bella, un perfume una estrella.
PRE




[Oye acordes][Oye cifra]
© LaCuerda.net · legal notice · privacy · es · en · pt · contact us
DINAMICO