Guitar Chords » S »La Sonora Dinamita » Amor de mis amores (Tab)

Amor de mis amores
La Sonora Dinamita

Lyrics, Chords & Tabs for Guitar, Bass & Ukulele

  • intro Am Em B Em(x2)
    
    Em                                  Am
    no te asombres si te digo lo que fuiste
    D                           G
    un ingrato con mi poobre corazon
    B                                      Em
    por que el fuego de tus lindos ojos negros
    C                              B
    alumbraron el camino de otro amor.
    
    
    Em                               Am
    y pensar que te adoraba tiernamente
    D                              G
    que a tu lado como nunca me senti
    B                              Em
    y por esas cosas raras de la vida
    C                  B          Em
    sin el beso de tu boca yo me vi
    
  •        Em
           x 16 tiempos (4 compases)
    
           (¡¡¡Hay vida mía!!!)
    
    
           Am - Em - B7 - Em
    
           Am - Em - B7 - Em
    
           Em                        Am
    No te asombres si te digo lo que fuiste
         D                      G
    un ingrato con mi pobre corazón
              B                        Em
    porque el fuego de tus lindos ojos negros
         C                         B
    alumbraron el camino de otro amor.
    
         Em                       Am
    
  • INTRO
       X3                 X2      X2     X2
    G|-------|-------|-------|-------|-------|
    D|-------|-------|-------|-------|---1-4-|
    A|-----2-|-------|---3-7-|-----2-|-2-----|
    E|-0-3---|-0-0-0-|-5-----|-0-3---|-------|
    
                        X2      X2     X2
    G|-------|-------|-------|-------|-------|
    D|-------|-------|-------|-------|---1-4-|
    A|-----2-|-------|---3-7-|-----2-|-2-----|
    E|-0-3---|-0-0-0-|-5-----|-0-3---|-------|
    NO TE ASOMBRES SI TE DIGO
        X4     X2             X2          X2    X2     X2       X2
    G|-------|-------|-------|-------|-------|------|-------|-------|
    D|-------|-------|---4-7-|-------|---1-4-|------|---2-5-|---1-4-|
    A|-----2-|---3-7-|-5-----|---2-5-|-2-----|----2-|-3-----|-2-----|
    E|-0-3---|-5-----|-------|-3-----|-------|-0-3--|-------|-------|
    Y PENSAR QUE TE ADORABA
         X2        X2   X2        X2     X2     X2
    G|-------|-------|-------|-------|-------|------|-------|-------|
    D|-------|-------|---4-7-|-------|---1-4-|------|---2-5-|---1-4-|
    A|-----2-|---3-
  • +
    ¡Colabora con nosotros!
    Envíanos tu versión de esta canción

Amor de mis amores Lyrics
no te asombres si te digo lo que fuiste
un ingrato con mi poobre corazon
por que el fuego de tus lindos ojos negros
alumbraron el camino de otro amor.
y pensar que te adoraba tiernamente
que a tu lado como nunca me senti
y por esas cosas raras de la vida
sin el beso de tu boca yo me vi
°°°cOrO°°°
amor de mis amores
amor mio que me isiste
que no puedo conformarme
sin poderte contemplar
ya que pagaste mal mi cariño tan sincero
lo que conseguiras que no te nombre nunca mas
amor de mis amores
si dejaste de quererme
no hay cuidado que la gente
de eso no se enterara
que gano con decir
que un hombre cambio mi suerte
se burlaran de mi
que nadie sepa mi sufrir
SE REPITE DESDE EL INICIO
dudas o comentarios al dmente_138@hotmail.com
GRUPO MUSICAL "JUNIOR`S" DE CUERNAVACA
(cumbias,ranchero,banda,duranguese y mas estilos)
comtrataciones al dmente_138@hotmail.com para hablarlo




[Amor de mis amores acordes][Amor de mis amores cifra]
© LaCuerda.net · legal notice · privacy · es · en · pt · contact us
DINAMICO