Guitar Chords » S »Silvio Rodriguez » Leyenda de los dos amantes (Tab)

Leyenda de los dos amantes
Silvio Rodriguez

Lyrics, Chords & Tabs for Guitar, Bass & Ukulele

  • --2---------2--------------2----------2--------------------------
    ----2---------2------------------4-------2-----------------------
    ------2---------1-------------------------------------------------
    -------------------------------0---------0-------------------------
    --------------------7-4---------------------2--0-----------------
    
                E                                     B7
    -0---------0--------------0------------------------------------
    --2----------2--------------2-----------------2----------------
    ----2----------2------------------4-------------1--------------
    ------2----------1----------------------------------2-----2-----
    -------------------------------0----------------------0-----0---
    --------7 5--------5-4--------------4-2-------------2-----2-
    
                    E             C#m
    Como tiernas babosas de la campiña
                       A           F#m
    ella y él se enroscaron húmedamente,
           B7
    húmedamente
    
  • Intro: Esus4 - E - Eadd2 - E
         Esus4 - E - Eadd2 - B7
    
                 E           C#m7
    Como tiernas babosas de la campiña
                    A - EG#
    Ella y el se enroscaron
          F#m7          B7
    Húmedamente, húmedamente
    
       E               C#m7
    Y el dejo de ser hombre, como ella niña,
              A - EG#
    Para ser uno solo
          F#m7          B7
    Completamente, completamente
    
                 C#m7             G#m
    Desde todos los puntos que los juntaban
                 G#sem - C#(b9)       F#m - G#m - A
    
  • +
    ¡Colabora con nosotros!
    Envíanos tu versión de esta canción

Leyenda de los dos amantes Lyrics
Como tiernas babosas de la campiña
ella y él se enroscaron húmedamente,
húmedamente
y él dejó de ser hombre, como ella niña,
para ser uno sólo completamente.
Completamente
Desde todos los puntos que los juntaban
se saborearon tanto y con tal delicia,
que las horas de vida que les quedaban
decidieron pasarlas en la caricia.
A menos de un suspiro del tibio abrazo
el resto de la historia se debatía
en átomos, galaxias y otros acasos
que encontraron certeza justo aquel día.
Y se hicieron leyenda los dos amantes
enroscados eterna y húmedamente.
húmedamente
Nada pudo tocarlos detrás de guantes.
Sólo pueden saberlo los igualmente.
Los iguamente
Los iguamente




[Leyenda de los dos amantes acordes][Leyenda de los dos amantes cifra]
© LaCuerda.net · legal notice · privacy · es · en · pt · contact us
DINAMICO