Guitar Chords » S »Silvio Rodriguez » Debo partirme en dos (Tab)

Debo partirme en dos
Silvio Rodriguez

Lyrics, Chords & Tabs for Guitar, Bass & Ukulele

  • Introd. : LAm - LA# - MI (MI4)     
    
       LAm             LA#      MI (MI4)
    A.- No se crean que es majadería.
    LAm             LA#           MI (MI4)
    Que nadie se levante aunque me ría.
    LAm             DO              SOL
    Hace rato que vengo lidiando con gente
    LAm              DO              SOL
    que dice que yo canto cosas indecentes.
         
            DO         LAm
    B.- Te quiero, mi amor,
    FA           SOL
    no me dejes solo.
        DO   (V-2)    LAm   
    No puedo estar sin ti,
    FA (RE/FA#)  SOL - SOL7
    mira que yo lloro.
         
    
  •    Am   Dm    E   G\B   C    G    F
    E|--0----1----0----0----0----3----1---
    B|--1----3----0----3----1----0----1---
    G|--2----2----1----0----0----0----2---
    D|--2----0----2----0----2----0----3---
    A|--0---------2----2----3----2----3---
    E|------------0---------0----3----1---
    
    
    Intro.:
    E|--0--------------1-----------1--0--
    B|--1--1--1--0-----3--0--1--3-----0--
    G|--2-----------2--2--------------1--
    D|--2--------------0--------------2--
    A|--0-----------------------------2--
    E|--------------------------------0--
    
         Am              Dm         E
         No se crean que es majadería.
    
    
  • Intro: LAm.LA#.MI
    
      LAm             LA#      MI
    A)No se crean que es majadería
    LAm            LA#              MI
    que nadie se levante aunque me ría
    LAm(V-2)       DO                SOL
    hace rato que vengo lidiando con gente
    LAm(V-2)        DO               SOL
    que dice que yo canto cosas indecentes.
    
      DO(V-2)        LAm  FA (RE/FA#) SOL SOL7
    B)Te quiero, mi amor, no me dejes solo
        DO(V-2)        LAm  FA (RE/FA#) SOL SOL7
    no puedo estar sin ti, mira que yo lloro.
    
    A)No ven, ya soy decente, me fue fácil
    que el publico se agrupe y que me aclame
    que se acerquen los niños, los amantes del ritmo
    que se queden sentados los intelectuales.
    
  • |-----------|-----------1-|-0-------0h3p0-----0-----|
    |-1---1p0---|-------1p3---|-----0h3-------0h3---0---|
    |---2-----2-|-----3-------|---1-------------------1-|
    |-----------|---3---------|-------------------------|
    |-0---------|-1-----------|-------------------------|
    |-----------|-------------|-0-----------------------|
    
    |-----------|-----------1---|-0-------0---|---3p0-------|
    |---1-1p0---|-3-----1h3---3-|-----0h3---0-|-------0h3---|
    |---------2-|-----3---------|---1---------|-1---------1-|
    |---2-------|---3-----------|-------------|-------------|
    |-0---------|-1-------------|-------------|-------------|
    |-----------|---------------|-0-----------|-------------|
    
    1° ESTROFA:
    
          No se crean que es majadería.
    |---|---------|---------0h3p3-|-----0-----|
    |-1-|-------3-|-----0h3-------|-0h3---0---|
    |-2-|-----3---|---1-----------|---------1-|
    
  • +
    ¡Colabora con nosotros!
    Envíanos tu versión de esta canción

Debo partirme en dos Lyrics
No se crean que es majadería.
Que nadie se levante aunque me ría.
Hace rato que vengo lidiando con gente
que dice que yo canto cosas indecentes.
Te quiero, mi amor,
no me dejes solo.
No puedo estar sin ti
mira que yo lloro.
¿No ven?, ya soy decente:
me fue fácil.
Que el público se agrupe y que me aclame.
Que se acerquen los niños,
los amantes del ritmo.
Que se queden sentados los intelectuales.
Debo partirme en dos.
Debo partirme en dos.
Unos dicen que aquí,
otros dicen que allá
y sólo quiero decir,
sólo quiero cantar
y no importa la suerte
que pueda correr
una canción.
Unos dicen que aquí,
otros dicen que allá
y sólo quiero decir,
sólo quiero cantar,
y no importa que luego
me suspendan la función.
(*** En los proximos versos se repiten los acordes de arriba ***)
Yo también canté en tonos menores.
Yo también padecí de esos dolores.
Yo también parecía cantar como un santo.
Yo también repetí en millones de cantos:
Te quiero, mi amor,
no me dejes solo.
No puedo estar sin ti
mira que yo lloro.
Pero me fui enredando en más asuntos
y aparecieron cosas de este mundo:
«Fusil contra fusil», «La canción de la Trova»
y «la era pariendo» se puso de moda.
Debo partirme en dos.
Unos dicen que aquí,
otros dicen que allá
y sólo quiero decir,
sólo quiero cantar
y no importa la suerte
que pueda correr
una canción.
Unos dicen que aquí,
otros dicen que allá
y sólo quiero decir,
sólo quiero cantar,
y no importa que luego
me suspendan la función.
Yo quería cantar encapuchado
y después confundirme a vuestro lado
aunque así no tuviera amigos y citas
y algún que otro favor de una chica bonita.
Te quiero, mi amor,
no me dejes solo.
No puedo estar sin ti
mira que yo lloro.
No voy a repetir ese estribillo.
Algunos ojos miran con mal brillo
y estoy temiendo ahora no ser interpretado:
casi siempre sucede que se piensa algo malo.
Debo partirme en dos.
Unos dicen que aquí,
otros dicen que allá
y sólo quiero decir,
sólo quiero cantar
y no importa la suerte
que pueda correr
una canción.
Unos dicen que aquí,
otros dicen que allá
y sólo quiero decir,
sólo quiero cantar,
y no importa que luego
me suspendan la función.




[Debo partirme en dos acordes][Debo partirme en dos cifra]
© LaCuerda.net · legal notice · privacy · es · en · pt · contact us
DINAMICO