Guitar Chords » S »Shakira » Tu (Tab)

Tu
Shakira

Lyrics, Chords & Tabs for Guitar, Bass & Ukulele

  • C     G         Am    F
    Te regalo mi cintura
    C      G                     Am     F
    y mis labios para cuando quieras besar,
    C     G         Am     F
    Te regalo mi locura
    C      G              Am         F
    y las pocas neuronas que quedan ya.
    Dm                F          
    Mis zapatos desteñidos 
                            C
    el diario en el que escribo
                         Dm
    te doy hasta mis suspiros
                      G
    pero no te vayas mas.
    
    Coro
                 C
    Porque eres tu mi sol
    
  • Esta va por Erika, "porque nunca podré vivir... sin ti"
    Estos son los arreglos de piano en el intro y outro:
    
    Intro:
    E|-------15----------15----------15----|
    B|-12-13-------12-13-------12-13-------|
    G|----------12----------12----------12-|
    
    E|-------15----------15----------15----------------|
    B|-12-13-------12-13-------12-13----13-12-13-12----|
    G|----------12----------12----------------------12-|
    
    Outro:
    E|-------15----------15----------15----|
    B|-12-13-------12-13-------12-13-------|
    G|----------12----------12----------12-|
    
    E|-------15----------15----------15----------|
    B|-12-13-------12-13-------12-13----13-12-15-|
    G|----------12----------12-------------------|
    
    E|-------------------15-|
    B|-------12-13---15-----|
    G|-12-14----------------|
  • Gtr I  (E A D G B E) - Ritmica
    Gtr II (E A D G B E) - Arpegio
    
      Q=68
     4/4
      Gtr II
      W          S S S S S S S S S S S S S S E
    |----------|-------------------------------|
    |----------|-------0-1-----0---------1-----|
    |----------|-----2-------2-----------------|
    |----------|---2-------2---------3---------|
    |----------|-0-----------------3---3-------|
    |----------|-----------------1-------------|
    
    
      S S S S S S S S S S S S S S E   S S S S S S S S S S S S S S E
    |---------0---------------------|--------------------------------|
    |-----1-3-----1-3---------0-----|-------0-1-----1---------1------|
    |---0-------0---------0---------|-----2-------2------------------|
    |-------------------0---0-------|---2-------2---------3----------|
    
  • Esta es la versión fácil para el bajo de esta rola, espero que les guste.
    Ya saben, cualquier error o comentario mándenme un mail.
    ---Saludos desde Monterrey, Nuevo León a todos los rockeros de corazón---
    
    INTRO:
    G--------------|
    D--------------|  (2 veces)
    A--------3-----|
    E--5--1-----3--|
    
    VERSOS:
    G--------------|
    D--------------|  (4 veces)
    A--3-----------|
    E-----3--5--1--|
    
    después de cada verso hay una figura más o menos así
    (no estoy seguro si lo hace el bajo, pero se oye bien)
    Fig. 1
    G------------------|
    D------------------| 
    A---3-/-5-/-6-/-3--|
    E------------------|
    
    G----------------------|
    D----------------------|  (1 vez)
    A--555-----333-555-----|
    E------111---------333-|
    
    CORO:
    G----------------------------|
    D----------------------------|  (2 veces)
    A--3333------5555------------|
    E-------3333------111-/-333--|
    
    G--------------|
    D--------------|  (2 veces)
    A--------3-----|
    E--5--1-----3--|
    
    VERSOS
    
    CORO
    
    INTRO (termina en E5
  • La afinacion del Bajo es normal (E A D G)
    
    Epezamos!!!
      Q=68
     4/4
      Gtr I
      W          W          W          W
    |----------|----------|----------|------|
    |----------|----------|----------|------|
    |----------|----------|----------|------|
    |----------|----------|----------|------|
    
    
      W          W          W          W
    |----------|----------|----------|------|
    |----------|----------|----------|------|
    |----------|----------|----------|------|
    |----------|----------|----------|------|
    
    
      W          H    H      H    H      H    H
    |----------|-----------|-----------|-----------|
    |----------|-----------|-----------|-----------|
    |----------|-3---------|-0---------|-3---------|
    |----------|------3----|------1----|------3----|
    
    
      Q  E E +H       Q  E S S Q  Q    Q  E S S S S E +S  S S S
    |---------------|----------------|---------------------------|
    |---------------|----------------|---------------------------|
    |-0-------------|-5--------5-----|--------3----------
  • +
    ¡Colabora con nosotros!
    Envíanos tu versión de esta canción

Tu Lyrics
Te regalo mi cintura
y mis labios para cuando quieras besar,
Te regalo mi locura
y las pocas neuronas que quedan ya.
Mis zapatos desteñidos
el diario en el que escribo
te doy hasta mis suspiros
pero no te vayas mas.
Porque eres tu mi sol
la fe con que vivo
la potencia de mi voz
los pies con que camino
Eres tu amor
mis ganas de reir
el adiós que no sabré decir
porque nunca podré vivir
sin ti.
Si algún dia decidieras
alejarte nuevamente de aqui
cerraría cada puerta
para que nunca pudieras salir
Te regalo mis silencios
te regalo mi nariz
yo te doy hasta mis huesos
pero quédate aqui




[Tu acordes][Tu cifra]
© LaCuerda.net · legal notice · privacy · es · en · pt · contact us
DINAMICO